Psychics in LA - Peach Pit (ending solo)

Chords

01234567891011121314151617181920212223
E
B
G
D
A
E
B
0 1 2 3 4 5 6 7 8 9 10 11 12 13 14 15 16 17 18 19 20 21 22 23
(/) Slide Up  (\) Slide Down  (h) Hammer On  (p) Pull Off  (b) Bend (r) Release (v) Vibrato

Stave 1:

E|--9------11-----12--12--12-----11-----9---9-----------12------------------------------------------12--
B|--12-----14-----15--15--15-----14-----12--12-----/14------16--14--12--9--14--12\9------9--12--14------
G|-----------------------------------------------------------------------------------11-----------------
D|------------------------------------------------------------------------------------------------------
A|------------------------------------------------------------------------------------------------------
E|------------------------------------------------------------------------------------------------------

Stave 2:

E|--15b18--12--------------------------------------------------------------------------------------------
B|-------------14--17--14--12--14--9--12-----------------------------------------------------------------
G|----------------------------------------11--13--9--11-----------------------------9--11b13--11--9--11--
D|-------------------------------------------------------9--11---------------9--11-----------------------
A|--------------------------------------------------------------9--9--9--11------------------------------
E|-------------------------------------------------------------------------------------------------------

Stave 3:

E|-------------------------14--14--15b17--14----------------------
B|-------------12--14--17---------------------17--14------14--14--
G|--9--11--13-----------------------------------------16----------
D|----------------------------------------------------------------
A|----------------------------------------------------------------
E|----------------------------------------------------------------

							http://www.guitartabcreator.com
Instruments
{"strings":[[[9,"_",11,"_",12,12,12,"_",11,"_",9,9,"_",".",".",12,".",".",".",".",".",".",".",".",".",".",".",".",12],[12,"_",14,"_",15,15,15,"_",14,"_",12,12,"_","/",14,".",16,14,12,9,14,12,"\\",9,".",9,12,14,"."],[".","_",".","_",".",".",".","_",".","_",".",".","_",".",".",".",".",".",".",".",".",".",".",".",11,".",".",".","."],[".","_",".","_",".",".",".","_",".","_",".",".","_",".",".",".",".",".",".",".",".",".",".",".",".",".",".",".","."],[".","_",".","_",".",".",".","_",".","_",".",".","_",".",".",".",".",".",".",".",".",".",".",".",".",".",".",".","."],[".","_",".","_",".",".",".","_",".","_",".",".","_",".",".",".",".",".",".",".",".",".",".",".",".",".",".",".","."]],[[15,"b",18,12,".",".",".",".",".",".",".",".",".",".",".",".",".",".",".",".",".",".",".",".",".",".",".",".",".","."],[".",".",".",".",14,17,14,12,14,9,12,".",".",".",".",".",".",".",".",".",".",".",".",".",".",".",".",".",".","."],[".",".",".",".",".",".",".",".",".",".",".",11,13,9,11,".",".",".",".",".",".",".",".",9,11,"b",13,11,9,11],[".",".",".",".",".",".",".",".",".",".",".",".",".",".",".",9,11,".",".",".",".",9,11,".",".",".",".",".",".","."],[".",".",".",".",".",".",".",".",".",".",".",".",".",".",".",".",".",9,9,9,11,".",".",".",".",".",".",".",".","."],[".",".",".",".",".",".",".",".",".",".",".",".",".",".",".",".",".",".",".",".",".",".",".",".",".",".",".",".",".","."]],[[".",".",".",".",".",".",14,14,15,"b",17,14,".",".",".",".","."],[".",".",".",12,14,17,".",".",".",".",".",".",17,14,".",14,14],[9,11,13,".",".",".",".",".",".",".",".",".",".",".",16,".","."],[".",".",".",".",".",".",".",".",".",".",".",".",".",".",".",".","."],[".",".",".",".",".",".",".",".",".",".",".",".",".",".",".",".","."],[".",".",".",".",".",".",".",".",".",".",".",".",".",".",".",".","."]]],"numberofstrings":6,"notes":["E","B","G","D","A","E","B"],"capo":0,"stringnotes":["E4","B3","G3","D3","A2","E2"],"comments":["Stave 1:","Stave 2:","Stave 3:"],"timing":[["W",null,"W",null,"W","W","W",null,"W",null,"W","W",null,null,"W","W","W","W","W","W","W","W",null,"W","W","W","W","W","W"],["W",null,"W","W","W","W","W","W","W","W","W","W","W","W","W","W","W","W","W","W","W","W","W","W","W",null,"W","W","W","W"],["W","W","W","W","W","W","W","W","W",null,"W","W","W","W","W","W","W"]],"timingvisible":false,"tabcounter":17,"stave":2,"totalstaves":3,"instrument":"6guitar","selectedtuning":"6_standard","version":"13"}

Member for

5 months
Submitted by StefanoB on Mon, 2020-10-26 18:45