Sound will begin in 5 seconds

The Office

Chords
01234567891011121314151617181920212223
E
B
G
D
A
E
B
0 1 2 3 4 5 6 7 8 9 10 11 12 13 14 15 16 17 18 19 20 21 22 23
Song Science #1: How Pros Use 6 Chords to Write Hit Songs
(/) Slide Up  (\) Slide Down  (h) Hammer On  (p) Pull Off  (b) Bend (r) Release (v) Vibrato

Stave 1:

A|-----------------------------10--9---10--9-------------------------------------------------
E|--8--8--8--7-----7---------------10---------10--12-----10--12--10--7--8--8--8--7-----7-----
A|--------------9-----7-----7------11-----------------------------------------------9-----7--
G|-------------------------------------------------------------------------------------------

Stave 2:

A|-----10--9---10--12p9---------------------------------------
E|---------10------------12--10--12--10--7--8--8--8--7--------
A|--7------11-------------------------------------------9--7--
G|------------------------------------------------------------

Stave 3:

A|-------------------10------10--14--10--14--17--14--17\
E|-----7--10--7--10------10-----------------------------
A|--7---------------------------------------------------
G|------------------------------------------------------

http://www.guitartabcreator.com
Guitar Tab Creator is intended to store guitar tab created through the tool. It currently does not support in-line text editing. Any text you place in here will be lost. If you need to comment on your tab, please use the "Tab Notes" section located below.