Sound will begin in 5 seconds

Lux Aeterna

01234567891011121314151617181920212223
E
B
G
D
A
E
B
0 1 2 3 4 5 6 7 8 9 10 11 12 13 14 15 16 17 18 19 20 21 22 23
Song Science #1: How Pros Use 6 Chords to Write Hit Songs
(/) Slide Up  (\) Slide Down  (h) Hammer On  (p) Pull Off  (b) Bend (r) Release (v) Vibrato

Stave 1:

A|--------------------------------------------------------------------------------------------------
E|--------------------------------------------------------------------------------------------------
A|--5-----------7-----8-----5-----------4-----3-----5-----------7-----8-----5-----------4-----3-----
G|--------------------------------------------------------------------------------------------------

Stave 2:

A|--1--0--------1--0--------1--0--------3--1--0--1--1--0--------1--0--------1--0--------3--1--0--1--
E|--------3-----------3-----------3-----------------------3-----------3-----------3-----------------
A|-----------2-----------2-----------2-----------------------2-----------2-----------2--------------
G|--------------------------------------------------------------------------------------------------

Stave 3:

A|--1--------1-----1--------1-----1--------1-----1-----1-----1-----1-----
E|-----3--------3-----3--------3-----3--------3-----3-----3-----3-----3--
A|-----------------------------------------------------------------------
G|-----------------------------------------------------------------------

Stave 4:

A|--1--------1-----1--------1-----1--------1-----1-----1-----1-----1-----
E|-----5--------5-----5--------5-----5--------5-----5-----5-----5-----5--
A|-----------------------------------------------------------------------
G|-----------------------------------------------------------------------

Stave 5:

A|--1--1--0--0--------1--1--1--0--0--0--------1--1--1--0--0--0-----------------0--0--0--0--1--1--1-----
E|--------------3-----------------------3-----------------------3-----3--3--3-----------------------3--
A|-----------------------------------------------------------------------------------------------------
G|-----------------------------------------------------------------------------------------------------

http://www.guitartabcreator.com
Guitar Tab Creator is intended to store guitar tab created through the tool. It currently does not support in-line text editing. Any text you place in here will be lost. If you need to comment on your tab, please use the "Tab Notes" section located below.