These are the Days - Age of Steel Bass

Chords

01234567891011121314151617181920212223
E
B
G
D
A
E
B
0 1 2 3 4 5 6 7 8 9 10 11 12 13 14 15 16 17 18 19 20 21 22 23
(/) Slide Up  (\) Slide Down  (h) Hammer On  (p) Pull Off  (b) Bend (r) Release (v) Vibrato

Intro/ Chorus/Solo

G|-----------------------------------
D|-----------------------------------
A|--5--3--2--3--5-----5--3--3--2-----
E|--------------------------------3--

Verse 1+2

G|-----------------------------
D|-----------------------------
A|--5--3--2-----5--3--2--3-----
E|--------------------------3--

Pre-Chorus

G|--------------------------
D|--------------------------
A|--2--3--5--7--2--3--5--7--
E|--------------------------

							http://www.guitartabcreator.com
Tab Notes
Same thing different tab. Listen to the recording, the more i tab these songs the more I realize how boring they are for bass
Instruments
{"strings":[[[".",".",".",".",".","_",".",".",".",".","."],[".",".",".",".",".","_",".",".",".",".","."],[5,3,2,3,5,"_",5,3,3,2,"."],[".",".",".",".",".","_",".",".",".",".",3]],[[".",".",".","_",".",".",".",".","."],[".",".",".","_",".",".",".",".","."],[5,3,2,"_",5,3,2,3,"."],[".",".",".","_",".",".",".",".",3]],[[".",".",".",".",".",".",".","."],[".",".",".",".",".",".",".","."],[2,3,5,7,2,3,5,7],[".",".",".",".",".",".",".","."]]],"numberofstrings":4,"notes":["G","D","A","E"],"capo":0,"stringnotes":["G2","D2","A1","E1"],"comments":["Intro/ Chorus/Solo","Verse 1+2","Pre-Chorus"],"timing":[["W","W","W","W","W",null,"W","W","W","W","W"],["W","W","W",null,"W","W","W","W","W"],["W","W","W","W","W","W","W","W"]],"timingvisible":false,"tabcounter":8,"stave":2,"totalstaves":3,"instrument":"4bass","selectedtuning":"4bass","version":"13"}

Member for

2 years 6 months
Submitted by Steel Kiwi on Wed, 2020-07-08 01:58