Save My Soul - Age of Steel bass tab

Chords

01234567891011121314151617181920212223
E
B
G
D
A
E
B
0 1 2 3 4 5 6 7 8 9 10 11 12 13 14 15 16 17 18 19 20 21 22 23
(/) Slide Up  (\) Slide Down  (h) Hammer On  (p) Pull Off  (b) Bend (r) Release (v) Vibrato

Intro

G|-----------------------
D|--0--0--0--------------
A|-----------0--2--3--0--
E|-----------------------

Verse 1 and 2

G|-----------------
D|--0-----0--------
A|-----0-----0--0--
E|-----------------

Chorus's

G|--------------------------------
D|-----------0-----0--0-----------
A|--2--3--0-----0--------0--0--0--
E|--------------------------------

Breakdown

G|-----------------------------------------------------------------------------------------------------------------------------
D|--0-----0--0-----0-----0--0--------2-----2--2-----2-----2--2-----------------------------------------------------------------
A|-----0--------0-----0--------0--------2--------2-----2--------2-----7--6--7--6--5--7--6--7--6--5-----------------------------
E|-----------------------------------------------------------------------------------------------------3--3--3--3--0--0--0--0--

Solo

G|--------------------------------------------------------------------------------------------------------
D|-----------------------0--0--0--0--0--0--0--------------------0--0--0--0--0--0--0-----------------------
A|--0--0--0--0--0--0--0-----------------------0--0--0--0--0--0--------------------------------------------
E|-----------------------------------------------------------------------------------0--0--0--0--0--0--0--

							http://www.guitartabcreator.com
Tab Notes
Listen to the recording as always and play along. Pretty straight forward song.
Instruments
{"strings":[[[".",".",".",".",".",".","."],[0,0,0,".",".",".","."],[".",".",".",0,2,3,0],[".",".",".",".",".",".","."]],[[".",".",".",".","."],[0,".",0,".","."],[".",0,".",0,0],[".",".",".",".","."]],[[".",".",".",".",".",".",".",".",".","."],[".",".",".",0,".",0,0,".",".","."],[2,3,0,".",0,".",".",0,0,0],[".",".",".",".",".",".",".",".",".","."]],[[".",".",".",".",".",".",".",".",".",".","_",".",".",".",".",".",".",".",".",".",".","_",".",".",".",".",".",".",".",".",".",".","_",".",".",".",".",".",".",".","."],[0,".",0,0,".",0,".",0,0,".","_",2,".",2,2,".",2,".",2,2,".","_",".",".",".",".",".",".",".",".",".",".","_",".",".",".",".",".",".",".","."],[".",0,".",".",0,".",0,".",".",0,"_",".",2,".",".",2,".",2,".",".",2,"_",7,6,7,6,5,7,6,7,6,5,"_",".",".",".",".",".",".",".","."],[".",".",".",".",".",".",".",".",".",".","_",".",".",".",".",".",".",".",".",".",".","_",".",".",".",".",".",".",".",".",".",".","_",3,3,3,3,0,0,0,0]],[[".",".",".",".",".",".",".",".",".",".",".",".",".",".",".",".",".",".",".",".",".",".",".",".",".",".",".",".",".",".",".",".",".","."],[".",".",".",".",".",".",".",0,0,0,0,0,0,0,".",".",".",".",".",".",0,0,0,0,0,0,0,".",".",".",".",".",".","."],[0,0,0,0,0,0,0,".",".",".",".",".",".",".",0,0,0,0,0,0,".",".",".",".",".",".",".",".",".",".",".",".",".","."],[".",".",".",".",".",".",".",".",".",".",".",".",".",".",".",".",".",".",".",".",".",".",".",".",".",".",".",0,0,0,0,0,0,0]]],"numberofstrings":4,"notes":["G","D","A","E"],"capo":0,"stringnotes":["G2","D2","A1","E1"],"comments":["Intro","Verse 1 and 2","Chorus's","Breakdown","Stave 5:"],"timing":[["W","W","W","W","W","W","W","W","W"],["W","W","W","W","W"],["W","W","W","W","W","W","W","W","W","W","W"],["W","W","W","W","W","W","W","W","W","W","W","W","W","W","W","W","W","W","W","W","W","W","W","W","W","W","W","W","W","W","W","W",null,"W","W","W","W","W","W","W","W"],["W","W","W","W","W","W","W","W","W","W","W","W","W","W","W","W","W","W","W","W","W","W","W","W","W","W","W","W","W","W","W","W","W","W"]],"timingvisible":false,"tabcounter":34,"stave":4,"totalstaves":5,"instrument":"4bass","selectedtuning":"4bass","version":"13"}

Member for

2 years 6 months
Submitted by Steel Kiwi on Wed, 2020-07-08 01:24