Sound will begin in 5 seconds

Into It. Over It. - Anesthetic

Chords
01234567891011121314151617181920212223
E
B
G
D
A
E
B
0 1 2 3 4 5 6 7 8 9 10 11 12 13 14 15 16 17 18 19 20 21 22 23
Song Science #1: How Pros Use 6 Chords to Write Hit Songs
(/) Slide Up  (\) Slide Down  (h) Hammer On  (p) Pull Off  (b) Bend (r) Release (v) Vibrato

Stave 1:

E|-------------------0--
B|-------------0-----0--
G|----------------------
D|----------------------
A|-----0h9h10-----------
E|--0-------------9-----

Stave 2:

E|-----0---------------------
B|---------------------------
G|-----------0---------------
D|--5-----5------------------
A|--5-----------7p5--7/9--7--
E|--5------------------------

Stave 3:

E|-------------0---------------------------
B|---------------------------------0-------
G|--0-----1h3-----3/5\3--5-----------------
D|-----0--------------------0h4h5-----2p0--
A|--2---------------------------------0----
E|-----------------------5-----------------

Stave 4:

E|-----------------0--------------------
B|-----0------------------------0-------
G|--1-----0-----7-----5-----------------
D|-----------0-----------0h4h5-----2p0--
A|--2-----------7------------------0----
E|--------------------5-----------------

Stave 5:

E|------------------------------------
B|--------------------0---------------
G|--1p0-------------------------------
D|-------2p0-------0--0--0h4h5p4\2p0--
A|------------0h2---------------------
E|--2---------------------------------

http://www.guitartabcreator.com
Guitar Tab Creator is intended to store guitar tab created through the tool. It currently does not support in-line text editing. Any text you place in here will be lost. If you need to comment on your tab, please use the "Tab Notes" section located below.