New song

Chords

01234567891011121314151617181920212223
E
B
G
D
A
E
B
0 1 2 3 4 5 6 7 8 9 10 11 12 13 14 15 16 17 18 19 20 21 22 23
(/) Slide Up  (\) Slide Down  (h) Hammer On  (p) Pull Off  (b) Bend (r) Release (v) Vibrato

Stave 1:

G|------9--7------6--4--------------------------9--9--9--7--7--7--6--6--------------------------6--6--6--
D|--7v--------4v--------7--7--7--7--7--7--7--7--------------------------4--4--4--4--4--4--4--4-----------
A|-------------------------------------------------------------------------------------------------------
E|-------------------------------------------------------------------------------------------------------

Stave 2:

G|--4--4--4--4--4--
D|-----------------
A|-----------------
E|-----------------

Stave 3:

G|---------------------------------------------------------------------------9----------
D|-----------------------------7--9--7--------------------12--11--9---------------------
A|-----------------7--9--7--9-----------9----------------------------12--11-----12--11--
E|--5--5--5--5--5--------------------------9--9--9--9--9--------------------------------

							http://www.guitartabcreator.com
Instruments
{"title":"","strings":[[[".",".",9,7,".",".",6,4,".",".",".",".",".",".",".",".",9,9,9,7,7,7,6,6,".",".",".",".",".",".",".",".",6,6,6],[7,"v",".",".",4,"v",".",".",7,7,7,7,7,7,7,7,".",".",".",".",".",".",".",".",4,4,4,4,4,4,4,4,".",".","."],[".",".",".",".",".",".",".",".",".",".",".",".",".",".",".",".",".",".",".",".",".",".",".",".",".",".",".",".",".",".",".",".",".",".","."],[".",".",".",".",".",".",".",".",".",".",".",".",".",".",".",".",".",".",".",".",".",".",".",".",".",".",".",".",".",".",".",".",".",".","."]],[[4,4,4,4,4],[".",".",".",".","."],[".",".",".",".","."],[".",".",".",".","."]],[[".",".",".",".",".",".",".",".",".",".",".",".",".",".",".",".",".",".",".",".",".",".",".",9,".","."],[".",".",".",".",".",".",".",".",".",7,9,7,".",".",".",".",".",".",12,11,9,".",".",".",".","."],[".",".",".",".",".",7,9,7,9,".",".",".",9,".",".",".",".",".",".",".",".",12,11,".",12,11],[5,5,5,5,5,".",".",".",".",".",".",".",".",9,9,9,9,9,".",".",".",".",".",".",".","."]]],"numberofstrings":4,"notes":["G","D","A","E"],"capo":0,"stringnotes":["G2","D2","A1","E1"],"comments":["Stave 1:","Stave 2:","Stave 3:"],"timing":[["W",null,"W","W","W",null,"W","W","W","W","W","W","W","W","W","W","W","W","W","W","W","W","W","W","W","W","W","W","W","W","W","W","W","W","W","W"],["W","W","W","W","W"],["W","W","W","W","W","W","W","W","W","W","W","W","W","W","W","W","W","W","W","W","W","W","W","W","W","W"]],"timingvisible":false,"tabcounter":26,"stave":2,"totalstaves":3,"instrument":"4bass","selectedtuning":"4bass_standard","version":"13"}

Member for

11 months
Submitted by Stapes on Thu, 2020-01-09 09:30