Gp2

Chords

01234567891011121314151617181920212223
E
B
G
D
A
E
B
0 1 2 3 4 5 6 7 8 9 10 11 12 13 14 15 16 17 18 19 20 21 22 23
(/) Slide Up  (\) Slide Down  (h) Hammer On  (p) Pull Off  (b) Bend (r) Release (v) Vibrato

Stave 1:

E|-----------------------------
B|-----------------------------
G|-----------------------------
D|-----------------------------
A|--7--9--8--5-----7--8--7--4--
E|--5--7--6--3-----5--6--5--2--

Stave 2:

E|----------------------------------------------
B|----------------------------------------------
G|----------------------------------------------
D|--5--7--9--10--9--7--5--5--7--9--10--9--7--4--
A|----------------------------------------------
E|----------------------------------------------

Stave 3:

E|-----------------------------
B|-----------------------------
G|-----------------------------
D|--7--9--8--5-----7--8--7--4--
A|--5--7--6--3-----5--6--5--2--
E|-----------------------------

Stave 4:

E|------------------------------
B|--5--7--8--12--11--8--12--15--
G|------------------------------
D|------------------------------
A|------------------------------
E|------------------------------

Stave 5:

E|-----
B|-----
G|-----
D|--2--
A|--2--
E|--0--

Stave 6:

E|---------------
B|---------------
G|---------------
D|---------------
A|--7--10--9--5--
E|--5--8---7--3--

Stave 7:

E|--------------
B|--------------
G|--------------
D|--2--5--3--0--
A|--------------
E|--------------

Stave 8:

E|-----
B|-----
G|-----
D|--2--
A|--2--
E|--2--

Stave 9:

E|--------------------------------------------------------------------------------------------
B|--------------------------------------------------------------------------------------------
G|-----------1-----------------1-----------------4-----------------2-----------------1--------
D|--------2-----2-----------2-----2-----------5-----5-----------3-----3-----------2-----2-----
A|-----2-----------2-----2-----------2-----5-----------5-----3-----------3-----2-----------2--
E|--0-----------------0-----------------0-----------------0-----------------0-----------------

							http://www.guitartabcreator.com
Tab Notes

- For verse, gp2 follows the same as gp1

Instruments
{"title":"Gp2","strings":[[[".",".",".",".","_",".",".",".","."],[".",".",".",".","_",".",".",".","."],[".",".",".",".","_",".",".",".","."],[".",".",".",".","_",".",".",".","."],[7,9,8,5,"_",7,8,7,4],[5,7,6,3,"_",5,6,5,2]],[[".",".",".",".",".",".",".",".",".",".",".",".",".","."],[".",".",".",".",".",".",".",".",".",".",".",".",".","."],[".",".",".",".",".",".",".",".",".",".",".",".",".","."],[5,7,9,10,9,7,5,5,7,9,10,9,7,4],[".",".",".",".",".",".",".",".",".",".",".",".",".","."],[".",".",".",".",".",".",".",".",".",".",".",".",".","."]],[[".",".",".",".","_",".",".",".","."],[".",".",".",".","_",".",".",".","."],[".",".",".",".","_",".",".",".","."],[7,9,8,5,"_",7,8,7,4],[5,7,6,3,"_",5,6,5,2],[".",".",".",".","_",".",".",".","."]],[[".",".",".",".",".",".",".","."],[5,7,8,12,11,8,12,15],[".",".",".",".",".",".",".","."],[".",".",".",".",".",".",".","."],[".",".",".",".",".",".",".","."],[".",".",".",".",".",".",".","."]],[["."],["."],["."],[2],[2],[0]],[[".",".",".","."],[".",".",".","."],[".",".",".","."],[".",".",".","."],[7,10,9,5],[5,8,7,3]],[[".",".",".","."],[".",".",".","."],[".",".",".","."],[2,5,3,0],[".",".",".","."],[".",".",".","."]],[["."],["."],["."],[2],[2],[2]],[[".",".",".",".",".",".",".",".",".",".",".",".",".",".",".",".",".",".",".",".",".",".",".",".",".",".",".",".",".","."],[".",".",".",".",".",".",".",".",".",".",".",".",".",".",".",".",".",".",".",".",".",".",".",".",".",".",".",".",".","."],[".",".",".",1,".",".",".",".",".",1,".",".",".",".",".",4,".",".",".",".",".",2,".",".",".",".",".",1,".","."],[".",".",2,".",2,".",".",".",2,".",2,".",".",".",5,".",5,".",".",".",3,".",3,".",".",".",2,".",2,"."],[".",2,".",".",".",2,".",2,".",".",".",2,".",5,".",".",".",5,".",3,".",".",".",3,".",2,".",".",".",2],[0,".",".",".",".",".",0,".",".",".",".",".",0,".",".",".",".",".",0,".",".",".",".",".",0,".",".",".",".","."]]],"numberofstrings":6,"notes":["E","B","G","D","A","E","B"],"capo":0,"stringnotes":["E4","B3","G3","D3","A2","E2"],"comments":["Stave 1:","Stave 2:","Stave 3:","Stave 4:","Stave 5:","Stave 6:","Stave 7:","Stave 8:","Stave 9:"],"timing":[["W","W","W","W","W","W","W","W","W"],["W","W","W","W","W","W","W","W","W","W","W","W","W","W"],["W","W","W","W",null,"W","W","W","W"],["W","W","W","W","W","W","W","W"],["W"],["W","W","W","W"],["W","W","W","W"],["W"],["W","W","W","W","W","W","W","W","W","W","W","W","W","W","W","W","W","W","W","W","W","W","W","W","W","W","W","W","W","W"]],"timingvisible":false,"tabcounter":30,"stave":8,"totalstaves":9,"instrument":"6guitar","selectedtuning":"6_standard","version":"13"}

Member for

11 months
Submitted by Stapes on Sun, 2020-01-26 11:18