Gp1

Chords

01234567891011121314151617181920212223
E
B
G
D
A
E
B
0 1 2 3 4 5 6 7 8 9 10 11 12 13 14 15 16 17 18 19 20 21 22 23
(/) Slide Up  (\) Slide Down  (h) Hammer On  (p) Pull Off  (b) Bend (r) Release (v) Vibrato

Stave 1:

E|--------------------------------------------------------------------------------------
B|--------------------------------------------------------------------------------------
G|--------------------------------------------------------------------------------------
D|--------------------------------------------------------------------------------------
A|--7--9--8--5--5--5--5--5--5--5--5--5--5--5--7--8--7--4--4--4--4--4--4--4--4--4--4--4--
E|--5--7--6--3--3--3--3--3--3--3--3--3--3--3--5--6--5--2--2--2--2--2--2--2--2--2--2--2--

Stave 2:

E|--------------------------------------
B|--------------------------------------
G|--------------------------------------
D|--------------------------------------
A|--2--5--7--4--4--2--2--5--7--4--4--2--
E|--0--0--0--0--0--0--0--0--0--0--0--0--

Stave 3:

E|--------------------------
B|--------------------------
G|--------------------------
D|--------------------------
A|--5--5--5--5--4--4--4--4--
E|--3--3--3--3--2--2--2--2--

Stave 4:

E|--------------------------------------------------------------
B|--------------------------------------------------------------
G|--------------------------------------------------------------
D|--------------------------------------------------------------
A|--7--9--10--14--13--10--14--17--7--10--9--14--13--10--14--17--
E|--5--7--8---12--11--8---12--15--5--8---7--12--11--8---12--15--

Stave 5:

E|--------------
B|--------------
G|--------------
D|--2--5--3--0--
A|--2--5--3--0--
E|--0--0--0--0--

							http://www.guitartabcreator.com
Instruments
{"title":"Gp1","strings":[[[".",".",".",".",".",".",".",".",".",".",".",".",".",".",".",".",".",".",".",".",".",".",".",".",".",".",".","."],[".",".",".",".",".",".",".",".",".",".",".",".",".",".",".",".",".",".",".",".",".",".",".",".",".",".",".","."],[".",".",".",".",".",".",".",".",".",".",".",".",".",".",".",".",".",".",".",".",".",".",".",".",".",".",".","."],[".",".",".",".",".",".",".",".",".",".",".",".",".",".",".",".",".",".",".",".",".",".",".",".",".",".",".","."],[7,9,8,5,5,5,5,5,5,5,5,5,5,5,7,8,7,4,4,4,4,4,4,4,4,4,4,4],[5,7,6,3,3,3,3,3,3,3,3,3,3,3,5,6,5,2,2,2,2,2,2,2,2,2,2,2]],[[".",".",".",".",".",".",".",".",".",".",".","."],[".",".",".",".",".",".",".",".",".",".",".","."],[".",".",".",".",".",".",".",".",".",".",".","."],[".",".",".",".",".",".",".",".",".",".",".","."],[2,5,7,4,4,2,2,5,7,4,4,2],[0,0,0,0,0,0,0,0,0,0,0,0]],[[".",".",".",".",".",".",".","."],[".",".",".",".",".",".",".","."],[".",".",".",".",".",".",".","."],[".",".",".",".",".",".",".","."],[5,5,5,5,4,4,4,4],[3,3,3,3,2,2,2,2]],[[".",".",".",".",".",".",".",".",".",".",".",".",".",".",".","."],[".",".",".",".",".",".",".",".",".",".",".",".",".",".",".","."],[".",".",".",".",".",".",".",".",".",".",".",".",".",".",".","."],[".",".",".",".",".",".",".",".",".",".",".",".",".",".",".","."],[7,9,10,14,13,10,14,17,7,10,9,14,13,10,14,17],[5,7,8,12,11,8,12,15,5,8,7,12,11,8,12,15]],[[".",".",".","."],[".",".",".","."],[".",".",".","."],[2,5,3,0],[2,5,3,0],[0,0,0,0]]],"numberofstrings":6,"notes":["E","B","G","D","A","E","B"],"capo":0,"stringnotes":["E4","B3","G3","D3","A2","E2"],"comments":["Stave 1:","Stave 2:","Stave 3:","Stave 4:","Stave 5:"],"timing":[["W","W","W","W","W","W","W","W","W","W","W","W","W","W","W","W","W","W","W","W","W","W","W","W","W","W","W","W"],["W","W","W","W","W","W","W","W","W","W","W","W"],["W","W","W","W","W","W","W","W"],["W","W","W","W","W","W","W","W","W","W","W","W","W","W","W","W"],["W","W","W","W"]],"timingvisible":false,"tabcounter":3,"stave":4,"totalstaves":5,"instrument":"6guitar","selectedtuning":"6_standard","version":"13"}

Member for

11 months
Submitted by Stapes on Sun, 2020-01-26 11:07