Bp1

Chords

01234567891011121314151617181920212223
E
B
G
D
A
E
B
0 1 2 3 4 5 6 7 8 9 10 11 12 13 14 15 16 17 18 19 20 21 22 23
(/) Slide Up  (\) Slide Down  (h) Hammer On  (p) Pull Off  (b) Bend (r) Release (v) Vibrato

Stave 1:

G|--------------------------------------
D|--------------------------------------
A|-----7--------5--2-----7--------------
E|--5-----5--3--------5-----5--2--------
B|--------------------------------5--2--

Stave 2:

G|--------------------------------------------------------
D|--------------------------------------------------------
A|-----7--7--7--7--5--5--5--5-----5--5--5--5--2--2--2--2--
E|--------------------------------------------------------
B|--0--------------------------3--------------------------

Stave 3:

G|-----------
D|-----------
A|-----3-----
E|--3-----2--
B|-----------

Stave 4:

G|--------------------------------------------------------------------------
D|--------1--2--5--2--1-----------------------1--2--5--2--1-----------------
A|-----3-----------------2--3--------------3-----------------3--2-----------
E|--3--------------------------2--2--2--3--------------------------2--2--2--
B|--------------------------------------------------------------------------

Stave 5:

G|--------------------------
D|--------------------------
A|-----------2--1-----2--5--
E|--0--2--3--------3--------
B|--------------------------

Stave 6:

G|--------------
D|--------------
A|--2--5--3--0--
E|--------------
B|--------------

Stave 7:

G|-----
D|-----
A|-----
E|-----
B|--0--

							http://www.guitartabcreator.com
Instruments
{"title":"Bp1","strings":[[[".",".",".",".",".",".",".",".",".",".",".","."],[".",".",".",".",".",".",".",".",".",".",".","."],[".",7,".",".",5,2,".",7,".",".",".","."],[5,".",5,3,".",".",5,".",5,2,".","."],[".",".",".",".",".",".",".",".",".",".",5,2]],[[".",".",".",".",".",".",".",".",".",".",".",".",".",".",".",".",".","."],[".",".",".",".",".",".",".",".",".",".",".",".",".",".",".",".",".","."],[".",7,7,7,7,5,5,5,5,".",5,5,5,5,2,2,2,2],[".",".",".",".",".",".",".",".",".",".",".",".",".",".",".",".",".","."],[0,".",".",".",".",".",".",".",".",3,".",".",".",".",".",".",".","."]],[[".",".","."],[".",".","."],[".",3,"."],[3,".",2],[".",".","."]],[[".",".",".",".",".",".",".",".",".",".",".",".",".",".",".",".",".",".",".",".",".",".",".","."],[".",".",1,2,5,2,1,".",".",".",".",".",".",".",1,2,5,2,1,".",".",".",".","."],[".",3,".",".",".",".",".",2,3,".",".",".",".",3,".",".",".",".",".",3,2,".",".","."],[3,".",".",".",".",".",".",".",".",2,2,2,3,".",".",".",".",".",".",".",".",2,2,2],[".",".",".",".",".",".",".",".",".",".",".",".",".",".",".",".",".",".",".",".",".",".",".","."]],[[".",".",".",".",".",".",".","."],[".",".",".",".",".",".",".","."],[".",".",".",2,1,".",2,5],[0,2,3,".",".",3,".","."],[".",".",".",".",".",".",".","."]],[[".",".",".","."],[".",".",".","."],[2,5,3,0],[".",".",".","."],[".",".",".","."]],[["."],["."],["."],["."],[0]]],"numberofstrings":5,"notes":["G","D","A","E","B"],"capo":0,"stringnotes":["G2","D2","A1","E1","B0"],"comments":["Stave 1:","Stave 2:","Stave 3:","Stave 4:","Stave 5:","Stave 6:","Stave 7:"],"timing":[["W","W","W","W","W","W","W","W","W","W","W","W"],["W","W","W","W","W","W","W","W","W","W","W","W","W","W","W","W","W","W"],["W","W","W"],["W","W","W","W","W","W","W","W","W","W","W","W","W","W","W","W","W","W","W","W","W","W","W","W"],["W","W","W","W","W","W","W","W"],["W","W","W","W"],["W"]],"timingvisible":false,"tabcounter":1,"stave":6,"totalstaves":7,"instrument":"5bass","selectedtuning":"5bass_standard","version":"13"}

Member for

6 months
Submitted by Stapes on Sun, 2020-01-26 11:42