Arpeggio: Major & Minor

Chords

01234567891011121314151617181920212223
E
B
G
D
A
E
B
0 1 2 3 4 5 6 7 8 9 10 11 12 13 14 15 16 17 18 19 20 21 22 23
(/) Slide Up  (\) Slide Down  (h) Hammer On  (p) Pull Off  (b) Bend (r) Release (v) Vibrato

C

E|--------------------------------------------------------------------------------------------
B|--------------------------------------------------------------------------------------------
G|--------------------------------------------------------------------------------------------
D|--------2--5-----5--2-----------------5-----5-----------------------------------------------
A|-----3-----------------3--------3--6-----------6--3-----------------------------------------
E|--------------------------------------------------------------------------------------------

A

E|--------------------------------------------------------------------------------------------
B|--------------------------------------------------------------------------------------------
G|--------------------------------------------------------------------------------------------
D|--------------------------------------------------------------------------------------------
A|--------4--7-----7--4-----------------7-----7-----------------------------------------------
E|-----5-----------------5--------5--8-----------8--5-----------------------------------------

G

E|--------------------------------------------------------------------------------------------
B|--------------------------------------------------------------------------------------------
G|--------------------------------------------------------------------------------------------
D|--------------------------------------------------------------------------------------------
A|--------2--5-----5--2-----------------5-----5-----------------------------------------------
E|-----3-----------------3--------3--6-----------6--3-----------------------------------------

E

E|----------------------------------------------------------------------------------------------
B|----------------------------------------------------------------------------------------------
G|----------------------------------------------------------------------------------------------
D|--------6--9-----9--6------------------9-----9------------------------------------------------
A|-----7-----------------7--------7--10-----------10--7-----------------------------------------
E|----------------------------------------------------------------------------------------------

D

E|--------------------------------------------------------------------------------------------
B|--------------------------------------------------------------------------------------------
G|--------------------------------------------------------------------------------------------
D|--------4--7-----7--4-----------------7-----7-----------------------------------------------
A|-----5-----------------5--------5--8-----------8--5-----------------------------------------
E|--------------------------------------------------------------------------------------------

							http://www.guitartabcreator.com
Instruments
{"strings":[[["_",".",".",".","_",".",".",".","_","_",".",".",".","_",".",".",".","_","_","_","_","_","_","_","_","_","_","_","_","_"],["_",".",".",".","_",".",".",".","_","_",".",".",".","_",".",".",".","_","_","_","_","_","_","_","_","_","_","_","_","_"],["_",".",".",".","_",".",".",".","_","_",".",".",".","_",".",".",".","_","_","_","_","_","_","_","_","_","_","_","_","_"],["_",".",2,5,"_",5,2,".","_","_",".",".",5,"_",5,".",".","_","_","_","_","_","_","_","_","_","_","_","_","_"],["_",3,".",".","_",".",".",3,"_","_",3,6,".","_",".",6,3,"_","_","_","_","_","_","_","_","_","_","_","_","_"],["_",".",".",".","_",".",".",".","_","_",".",".",".","_",".",".",".","_","_","_","_","_","_","_","_","_","_","_","_","_"]],[["_",".",".",".","_",".",".",".","_","_",".",".",".","_",".",".",".","_","_","_","_","_","_","_","_","_","_","_","_","_"],["_",".",".",".","_",".",".",".","_","_",".",".",".","_",".",".",".","_","_","_","_","_","_","_","_","_","_","_","_","_"],["_",".",".",".","_",".",".",".","_","_",".",".",".","_",".",".",".","_","_","_","_","_","_","_","_","_","_","_","_","_"],["_",".",".",".","_",".",".",".","_","_",".",".",".","_",".",".",".","_","_","_","_","_","_","_","_","_","_","_","_","_"],["_",".",4,7,"_",7,4,".","_","_",".",".",7,"_",7,".",".","_","_","_","_","_","_","_","_","_","_","_","_","_"],["_",5,".",".","_",".",".",5,"_","_",5,8,".","_",".",8,5,"_","_","_","_","_","_","_","_","_","_","_","_","_"]],[["_",".",".",".","_",".",".",".","_","_",".",".",".","_",".",".",".","_","_","_","_","_","_","_","_","_","_","_","_","_"],["_",".",".",".","_",".",".",".","_","_",".",".",".","_",".",".",".","_","_","_","_","_","_","_","_","_","_","_","_","_"],["_",".",".",".","_",".",".",".","_","_",".",".",".","_",".",".",".","_","_","_","_","_","_","_","_","_","_","_","_","_"],["_",".",".",".","_",".",".",".","_","_",".",".",".","_",".",".",".","_","_","_","_","_","_","_","_","_","_","_","_","_"],["_",".",2,5,"_",5,2,".","_","_",".",".",5,"_",5,".",".","_","_","_","_","_","_","_","_","_","_","_","_","_"],["_",3,".",".","_",".",".",3,"_","_",3,6,".","_",".",6,3,"_","_","_","_","_","_","_","_","_","_","_","_","_"]],[["_",".",".",".","_",".",".",".","_","_",".",".",".","_",".",".",".","_","_","_","_","_","_","_","_","_","_",".",".","."],["_",".",".",".","_",".",".",".","_","_",".",".",".","_",".",".",".","_","_","_","_","_","_","_","_","_","_",".",".","."],["_",".",".",".","_",".",".",".","_","_",".",".",".","_",".",".",".","_","_","_","_","_","_","_","_","_","_",".",".","."],["_",".",6,9,"_",9,6,".","_","_",".",".",9,"_",9,".",".","_","_","_","_","_","_","_","_","_","_",".",".","."],["_",7,".",".","_",".",".",7,"_","_",7,10,".","_",".",10,7,"_","_","_","_","_","_","_","_","_","_",".",".","."],["_",".",".",".","_",".",".",".","_","_",".",".",".","_",".",".",".","_","_","_","_","_","_","_","_","_","_",".",".","."]],[["_",".",".",".","_",".",".",".","_","_",".",".",".","_",".",".",".","_","_","_","_","_","_","_","_","_","_","_","_","_"],["_",".",".",".","_",".",".",".","_","_",".",".",".","_",".",".",".","_","_","_","_","_","_","_","_","_","_","_","_","_"],["_",".",".",".","_",".",".",".","_","_",".",".",".","_",".",".",".","_","_","_","_","_","_","_","_","_","_","_","_","_"],["_",".",4,7,"_",7,4,".","_","_",".",".",7,"_",7,".",".","_","_","_","_","_","_","_","_","_","_","_","_","_"],["_",5,".",".","_",".",".",5,"_","_",5,8,".","_",".",8,5,"_","_","_","_","_","_","_","_","_","_","_","_","_"],["_",".",".",".","_",".",".",".","_","_",".",".",".","_",".",".",".","_","_","_","_","_","_","_","_","_","_","_","_","_"]]],"numberofstrings":6,"notes":["E","B","G","D","A","E","B"],"capo":0,"stringnotes":["E4","B3","G3","D3","A2","E2"],"comments":["C","A","G","E","D","D"],"timing":[[null,"W","W","W",null,"W","W","W",null,null,"W","W","W",null,"W","W","W"],[null,"W","W","W",null,"W","W","W",null,null,"W","W","W",null,"W","W","W"],["W","W","W","W",null,"W","W","W",null,null,"W","W","W",null,"W","W","W"],[null,"W","W","W",null,"W","W","W",null,null,"W","W","W",null,"W","W","W",null,null,null,null,null,null,null,null,null,null,null,null,null,"W","W","W","W",null,"W","W","W",null,null,"W","W","W",null,"W","W","W"],[null,"W","W","W",null,"W","W","W",null,null,"W","W","W",null,"W","W","W",null,null,null,null,null,null,null,null,null,null,null,null,null,"W"],[]],"timingvisible":false,"tabcounter":30,"stave":3,"totalstaves":5,"instrument":"6guitar","selectedtuning":"6_standard","version":"13"}

Member for

2 weeks 3 days
Submitted by stainsor on Tue, 2020-06-30 14:55