5 Position Scale

Chords

01234567891011121314151617181920212223
E
B
G
D
A
E
B
0 1 2 3 4 5 6 7 8 9 10 11 12 13 14 15 16 17 18 19 20 21 22 23
(/) Slide Up  (\) Slide Down  (h) Hammer On  (p) Pull Off  (b) Bend (r) Release (v) Vibrato

Stave 1:

E|-----------------------------------------4--5--7--
B|-----------------------------------5--7-----------
G|--------------------------4--6--7-----------------
D|-----------------4--6--7--------------------------
A|--------4--5--7-----------------------------------
E|--5--7--------------------------------------------

Stave 2:

E|----------------------------------------------7--9--10--
B|------------------------------------7--9--10------------
G|---------------------------6--7--9----------------------
D|------------------6--7--9-------------------------------
A|------------7--9----------------------------------------
E|--7--9--10----------------------------------------------

Stave 3:

E|-----------------------------------------------------9--10--12--
B|------------------------------------------9--10--12-------------
G|-----------------------------------9--11------------------------
D|------------------------9--11--12-------------------------------
A|-------------9--11--12------------------------------------------
E|--9--10--12-----------------------------------------------------

Stave 4:

E|----------------------------------------------------------12--14--
B|----------------------------------------------12--14--15----------
G|----------------------------------11--13--14----------------------
D|----------------------11--12--14----------------------------------
A|----------11--12--14----------------------------------------------
E|--12--14----------------------------------------------------------

Stave 5:

E|----------------------------------------------------------14--16--17--
B|----------------------------------------------14--15--17--------------
G|----------------------------------13--14--16--------------------------
D|--------------------------14--16--------------------------------------
A|--------------14--16--17----------------------------------------------
E|--14--16--17----------------------------------------------------------

							http://www.guitartabcreator.com
Tab Notes
5 Positions of major scale in A. Can be used as minor scale if you account for the shift from major to relative minor.
Instruments
{"strings":[[[".",".",".",".",".",".",".",".",".",".",".",".",".",4,5,7],[".",".",".",".",".",".",".",".",".",".",".",5,7,".",".","."],[".",".",".",".",".",".",".",".",4,6,7,".",".",".",".","."],[".",".",".",".",".",4,6,7,".",".",".",".",".",".",".","."],[".",".",4,5,7,".",".",".",".",".",".",".",".",".",".","."],[5,7,".",".",".",".",".",".",".",".",".",".",".",".",".","."]],[[".",".",".",".",".",".",".",".",".",".",".",".",".",".",7,9,10],[".",".",".",".",".",".",".",".",".",".",".",7,9,10,".",".","."],[".",".",".",".",".",".",".",".",6,7,9,".",".",".",".",".","."],[".",".",".",".",".",6,7,9,".",".",".",".",".",".",".",".","."],[".",".",".",7,9,".",".",".",".",".",".",".",".",".",".",".","."],[7,9,10,".",".",".",".",".",".",".",".",".",".",".",".",".","."]],[[".",".",".",".",".",".",".",".",".",".",".",".",".",".",9,10,12],[".",".",".",".",".",".",".",".",".",".",".",9,10,12,".",".","."],[".",".",".",".",".",".",".",".",".",9,11,".",".",".",".",".","."],[".",".",".",".",".",".",9,11,12,".",".",".",".",".",".",".","."],[".",".",".",9,11,12,".",".",".",".",".",".",".",".",".",".","."],[9,10,12,".",".",".",".",".",".",".",".",".",".",".",".",".","."]],[[".",".",".",".",".",".",".",".",".",".",".",".",".",".",12,14],[".",".",".",".",".",".",".",".",".",".",".",12,14,15,".","."],[".",".",".",".",".",".",".",".",11,13,14,".",".",".",".","."],[".",".",".",".",".",11,12,14,".",".",".",".",".",".",".","."],[".",".",11,12,14,".",".",".",".",".",".",".",".",".",".","."],[12,14,".",".",".",".",".",".",".",".",".",".",".",".",".","."]],[[".",".",".",".",".",".",".",".",".",".",".",".",".",".",14,16,17],[".",".",".",".",".",".",".",".",".",".",".",14,15,17,".",".","."],[".",".",".",".",".",".",".",".",13,14,16,".",".",".",".",".","."],[".",".",".",".",".",".",14,16,".",".",".",".",".",".",".",".","."],[".",".",".",14,16,17,".",".",".",".",".",".",".",".",".",".","."],[14,16,17,".",".",".",".",".",".",".",".",".",".",".",".",".","."]]],"numberofstrings":6,"notes":["E","B","G","D","A","E","B"],"capo":0,"stringnotes":["E4","B3","G3","D3","A2","E2"],"comments":["Stave 1:","Stave 2:","Stave 3:","Stave 4:","Stave 5:"],"timing":[["W","W","W","W","W","W","W","W","W","W","W","W","W","W","W","W"],["W","W","W","W","W","W","W","W","W","W","W","W","W","W","W","W","W"],["W","W","W","W","W","W","W","W","W","W","W","W","W","W","W","W","W"],["W","W","W","W","W","W","W","W","W","W","W","W","W","W","W","W"],["W","W","W","W","W","W","W","W","W","W","W","W","W","W","W","W","W"]],"timingvisible":false,"tabcounter":17,"stave":4,"totalstaves":5,"instrument":"6guitar","selectedtuning":"6_standard","version":"13"}

Member for

5 months
Submitted by stackshot_ on Mon, 2021-01-11 12:33