Sound will begin in 5 seconds

Farewell Hyrule King

01234567891011121314151617181920212223
E
B
G
D
A
E
B
0 1 2 3 4 5 6 7 8 9 10 11 12 13 14 15 16 17 18 19 20 21 22 23
Song Science #1: How Pros Use 6 Chords to Write Hit Songs
(/) Slide Up  (\) Slide Down  (h) Hammer On  (p) Pull Off  (b) Bend (r) Release (v) Vibrato

Stave 1:

E|--------------------------------------------------------------------------------
B|--------------------------------------------------------------------------------
G|--------------------------------------------------------------------------------
D|-------0---------1---------0---------1---------0---------1---------0---------1--
A|--------------------------------------------------------------------------------
E|----3---------3---------3---------3---------3---------3---------3---------3-----

Stave 2:

E|--------------------------------------------------------------------------------
B|--------------------------------------------------------------------------------
G|--------------------------------------------------------------------------------
D|-------0---------4---------0---------1---------0---------1---------0---------1--
A|--------------------------------------------------------------------------------
E|----3---------3---------3---------3---------3---------3---------3---------3-----

Stave 3:

E|-----------------------------------------------------------------------------------------
B|--------------------3----------------------------3-------------------------------2----3--
G|--------------4--5-----5--4----------------4--5-----5--4-------------------------0----2--
D|---------------------------------------------------------------------------------0----4--
A|---------------------------------------------------------------------------------0----0--
E|----1------3---------------------1------3---------------------1------4------3------------

Stave 4:

E|----------------------------------------------------------
B|----------------------------------------------------------
G|----------------------------------------------------------
D|----------------------------------------------------------
A|-----------0--1------4----0------3----1-----1-------------
E|----3------------------------------------2---------3------

Stave 5:

E|------------------------------------------------------------------------------------------
B|------------------------------------------------------------------------------------------
G|------------------------------------------------0-----------------------------0-----0--3--
D|---------------------------------------------------8--0-----0--------------0-----0--------
A|----------------------------6--3-------------8-----------1--------1-----1-----------------
E|----8--8----11----8--11--8--------8------11--------------------3-----3--------------------

Stave 6:

E|---------------------------------------------------------------------------------------------
B|---------------------------------------------------------------------------------------------
G|----------0--5--8--5----0--5--0--0-----------0-----------------------------------0-----0--3--
D|------------------------------------1--1--1---------5--5--5--8----------------0-----0--------
A|----0--0-------------------------3-----------------------------------1-----1-----------------
E|---------------------------8--------------------------------------3-----3--------------------

Stave 7:

E|----------------------------------------------------------------------------------------------------
B|----------------------------------------------------------------------------------------------------
G|--------------8--0------0------------5--0-----0-----------0--------------------0--------0-----0--3--
D|----------10----------------------------------------0--8-----8--12--8--12--12--------0-----0--------
A|-------------------------------------6-----3--------------------------------------------------------
E|----8--8------------11-----8--11--8--------------8--------------------------------6-----------------

Stave 8:

E|----------------------------------------------------------------------------------------------
B|----------------------------------------------------------------------------------------------
G|----------------------8--------------------------------------------------------------0-----0--
D|---------4--10----10-----------4-----1--4--1-----------5-----0-----0--------------0-----0-----
A|----0--------------------9--------3-----------9--3--3-----------0--------1-----1--------------
E|----------------------------8-----------------------------6-----------3-----3-----------------

Stave 9:

E|------------------------------------------------------
B|------------------------------------------------------
G|------------------------------------------------------
D|------------------------------------------------------
A|-----------0--1----4------0------3------1-----1----1--
E|----3--------------------------------------2-------3--

http://www.guitartabcreator.com
Guitar Tab Creator is intended to store guitar tab created through the tool. It currently does not support in-line text editing. Any text you place in here will be lost. If you need to comment on your tab, please use the "Tab Notes" section located below.