Chief - Bass Tab

Chords

01234567891011121314151617181920212223
E
B
G
D
A
E
B
0 1 2 3 4 5 6 7 8 9 10 11 12 13 14 15 16 17 18 19 20 21 22 23
(/) Slide Up  (\) Slide Down  (h) Hammer On  (p) Pull Off  (b) Bend (r) Release (v) Vibrato

Stave 1:

G|-----------|-----------|-----------|-------------------
D|-----------|-----------|-----------|-------------------
A|--1-----4--|--1-----4--|--1-----4--|--6/8--6--4--------
E|-----4-----|-----4-----|-----4-----|-------------4--6--

Stave 2:

G|-----------|-----------|-----------|-------------------
D|-----------|-----------|-----------|-------------------
A|--1-----4--|--1-----4--|--1-----4--|--6/8--------------
E|-----4-----|-----4-----|-----4-----|----------------6--

Stave 3:

G|-----------|-----------|-----------|-------------------
D|-----------|-----------|-----------|-------------------
A|--1-----4--|--1-----4--|--1-----4--|--6/8--6-----------
E|-----4-----|-----4-----|-----4-----|-------------4--6--

Stave 4:

G|-----1--1h3-----1--1h3-----1--1h3-----1--1h3--
D|----------------------------------------------
A|--1----------1----------1----------1----------
E|----------------------------------------------

Stave 5:

G|-----6--6h8-----6--6h8-----6--6h8-----6--6h8--
D|----------------------------------------------
A|--4----------4----------4----------4----------
E|----------------------------------------------

Stave 6:

G|-----6--6h8-----6--6h8-----8--8-----6--6--
D|------------------------------------------
A|--4----------4----------4--------4--------
E|------------------------------------------

Stave 7:

G|--------|--------------|--------|-----------
D|--------|--------------|--------|-----------
A|--------|--------------|--------|-----------
E|--6--1--|--6--1--1--4--|--6--1--|--6--4--6--

Stave 8:

G|-----6--6h8-----6--6h8-----8-----6--
D|------------------------------------
A|--4----------4----------4-----4-----
E|------------------------------------

Stave 9:

G|--------------------|--------------------------------|--------------------|-------------------------------------
D|--------------------|--------------------------------|--------------------|-------------------------------------
A|--------------------|--------------------------------|--------------------|-------------------------------------
E|--6--6--4--1--1--4--|--6--6--6--6--6--4--x--1--1--4--|--6--6--4--9--9--4--|--6--6--4--12--12b12b12b12b12--4--6--

							http://www.guitartabcreator.com
Instruments
{"strings":[[[".",".",".","|",".",".",".","|",".",".",".","|",".",".",".",".",".",".","."],[".",".",".","|",".",".",".","|",".",".",".","|",".",".",".",".",".",".","."],[1,".",4,"|",1,".",4,"|",1,".",4,"|",6,"/",8,6,4,".","."],[".",4,".","|",".",4,".","|",".",4,".","|",".",".",".",".",".",4,6]],[[".",".",".","|",".",".",".","|",".",".",".","|",".",".",".","_","_","_","."],[".",".",".","|",".",".",".","|",".",".",".","|",".",".",".","_","_","_","."],[1,".",4,"|",1,".",4,"|",1,".",4,"|",6,"/",8,"_","_","_","."],[".",4,".","|",".",4,".","|",".",4,".","|",".",".",".","_","_","_",6]],[[".",".",".","|",".",".",".","|",".",".",".","|",".",".",".",".","_",".","."],[".",".",".","|",".",".",".","|",".",".",".","|",".",".",".",".","_",".","."],[1,".",4,"|",1,".",4,"|",1,".",4,"|",6,"/",8,6,"_",".","."],[".",4,".","|",".",4,".","|",".",4,".","|",".",".",".",".","_",4,6]],[[".",1,1,"h",3,".",1,1,"h",3,".",1,1,"h",3,".",1,1,"h",3],[".",".",".",".",".",".",".",".",".",".",".",".",".",".",".",".",".",".",".","."],[1,".",".",".",".",1,".",".",".",".",1,".",".",".",".",1,".",".",".","."],[".",".",".",".",".",".",".",".",".",".",".",".",".",".",".",".",".",".",".","."]],[[".",6,6,"h",8,".",6,6,"h",8,".",6,6,"h",8,".",6,6,"h",8],[".",".",".",".",".",".",".",".",".",".",".",".",".",".",".",".",".",".",".","."],[4,".",".",".",".",4,".",".",".",".",4,".",".",".",".",4,".",".",".","."],[".",".",".",".",".",".",".",".",".",".",".",".",".",".",".",".",".",".",".","."]],[[".",6,6,"h",8,".",6,6,"h",8,".",8,8,".",6,6],[".",".",".",".",".",".",".",".",".",".",".",".",".",".",".","."],[4,".",".",".",".",4,".",".",".",".",4,".",".",4,".","."],[".",".",".",".",".",".",".",".",".",".",".",".",".",".",".","."]],[[".",".","|",".",".",".",".","|",".",".","|",".",".","."],[".",".","|",".",".",".",".","|",".",".","|",".",".","."],[".",".","|",".",".",".",".","|",".",".","|",".",".","."],[6,1,"|",6,1,1,4,"|",6,1,"|",6,4,6]],[[".",6,6,"h",8,".",6,6,"h",8,".",8,".",6],[".",".",".",".",".",".",".",".",".",".",".",".",".","."],[4,".",".",".",".",4,".",".",".",".",4,".",4,"."],[".",".",".",".",".",".",".",".",".",".",".",".",".","."]],[[".",".",".",".",".",".","|",".",".",".",".",".",".",".",".",".",".","|",".",".",".",".",".",".","|",".",".",".",".",".",".",".",".",".",".",".",".",".",".","."],[".",".",".",".",".",".","|",".",".",".",".",".",".",".",".",".",".","|",".",".",".",".",".",".","|",".",".",".",".",".",".",".",".",".",".",".",".",".",".","."],[".",".",".",".",".",".","|",".",".",".",".",".",".",".",".",".",".","|",".",".",".",".",".",".","|",".",".",".",".",".",".",".",".",".",".",".",".",".",".","."],[6,6,4,1,1,4,"|",6,6,6,6,6,4,"x1",1,1,4,"|",6,6,4,9,9,4,"|",6,6,4,12,12,"b",12,"b",12,"b",12,"b",12,4,6]]],"numberofstrings":4,"notes":["G","D","A","E"],"capo":0,"stringnotes":["G2","D2","A1","E1"],"comments":["Stave 1:","Stave 2:","Stave 3:","Stave 4:","Stave 5:","Stave 6:","Stave 7:","Stave 8:","Stave 9:"],"timing":[["W","W","W",null,"W","W","W",null,"W","W","W",null,"W",null,"W","W","W","W","W"],["W","W","W",null,"W","W","W",null,"W","W","W",null,"W",null,"W",null,null,null,"W"],["W","W","W",null,"W","W","W",null,"W","W","W",null,"W",null,"W","W",null,"W","W"],["W","W","W",null,"W","W","W","W",null,"W","W","W","W",null,"W","W","W","W",null,"W"],["W","W","W",null,"W","W","W","W",null,"W","W","W","W",null,"W","W","W","W",null,"W"],["W","W","W",null,"W","W","W","W",null,"W","W","W","W","W","W","W"],["W","W",null,"W","W","W","W",null,"W","W",null,"W","W","W"],["W","W","W",null,"W","W","W","W",null,"W","W","W","W","W"],["W","W","W","W","W","W",null,"W","W","W","W","W","W","W","W","W","W",null,"W","W","W","W","W","W",null,"W","W","W","W","W",null,"W",null,"W",null,"W",null,"W","W","W"]],"timingvisible":false,"tabcounter":40,"stave":8,"totalstaves":9,"instrument":"4bass","selectedtuning":"4bass","version":"13"}

Member for

1 week 3 days
Submitted by sr93 on Tue, 2020-06-30 15:06