Sound will begin in 5 seconds

Blues Scales, One Octave

01234567891011121314151617181920212223
E
B
G
D
A
E
B
0 1 2 3 4 5 6 7 8 9 10 11 12 13 14 15 16 17 18 19 20 21 22 23
Song Science #1: How Pros Use 6 Chords to Write Hit Songs
(/) Slide Up  (\) Slide Down  (h) Hammer On  (p) Pull Off  (b) Bend (r) Release (v) Vibrato

Stave 1:

E|-----------------------
B|--------------------1--
G|--------------0--3-----
D|-----1--3--4-----------
A|--3--------------------
E|-----------------------

Stave 2:

E|-----------------------
B|-----------------------
G|--------------------0--
D|--------------0--3-----
A|-----1--3--4-----------
E|--3--------------------

Stave 3:

E|-----------------------
B|-----------------0--3--
G|--------0--1--2--------
D|--0--3-----------------
A|-----------------------
E|-----------------------

Stave 4:

E|-----------------------
B|-----------------------
G|-----------------0--2--
D|--------0--1--2--------
A|--0--3-----------------
E|-----------------------

Stave 5:

E|-----------------------
B|-----------------------
G|-----------------------
D|-----------------0--2--
A|--------0--1--2--------
E|--0--3-----------------

Stave 6:

E|-----------------------
B|--------------------0--
G|-----------------2-----
D|-----0--2--3--4--------
A|--2--------------------
E|-----------------------

Stave 7:

E|-----------------------
B|-----------------------
G|-----------------------
D|-----------------2--4--
A|-----0--2--3--4--------
E|--2--------------------

Stave 8:

E|-----------------------
B|-----------------0--2--
G|-----------0--1--------
D|-----2--4--------------
A|--4--------------------
E|-----------------------

Stave 9:

E|-----------------------
B|-----------------------
G|--------------------1--
D|-----------0--1--4-----
A|-----2--4--------------
E|--4--------------------

Stave 10:

E|-----------------------
B|-----------------2--4--
G|--------1--2--3--------
D|--1--4-----------------
A|-----------------------
E|-----------------------

Stave 11:

E|-----------------------
B|-----------------------
G|-----------------1--3--
D|--------1--2--3--------
A|--1--4-----------------
E|-----------------------

Stave 12:

E|-----------------------
B|-----------------------
G|-----------------------
D|-----------------1--3--
A|--------1--2--3--------
E|-----4-----------------

http://www.guitartabcreator.com
Guitar Tab Creator is intended to store guitar tab created through the tool. It currently does not support in-line text editing. Any text you place in here will be lost. If you need to comment on your tab, please use the "Tab Notes" section located below.