Sound will begin in 5 seconds

BuczaK III

Chords
01234567891011121314151617181920212223
E
B
G
D
A
E
B
0 1 2 3 4 5 6 7 8 9 10 11 12 13 14 15 16 17 18 19 20 21 22 23
Song Science #1: How Pros Use 6 Chords to Write Hit Songs
(/) Slide Up  (\) Slide Down  (h) Hammer On  (p) Pull Off  (b) Bend (r) Release (v) Vibrato

Stave 1:

E|-----0--1--3-----x---------------------------------------------x---------------------------------
B|--3--1--3--5-----10--------------------------------------------10--------------------------------
G|--0--------------10--------------------------------------------10--------------------------------
D|--0--2--3--5-----10--------------------------------------------10--------------------------------
A|-----------------8------8-----8-----8-----8-----8-----8-----8--8------8-----8-----8-----8-----8--
E|-----------------8---8-----8-----8-----8-----8-----8-----8-----8---8-----8-----8-----8-----8-----

Stave 2:

E|--------------------------0--1--3--x---------------------------------------------x---------------
B|-----------------------3--1--3--5--10--------------------------------------------10--------------
G|-----------------------0-----------10--------------------------------------------10--------------
D|-----------------------0--2--3--5--10--------------------------------------------10--------------
A|-----8-----------------------------8------8-----8-----8-----8-----8-----8-----8--8------8-----8--
E|--8-----8--------------------------8---8-----8-----8-----8-----8-----8-----8-----8---8-----8-----

Stave 3:

E|-----------------------------------10--8---------------------------------------------
B|------------------------------------------11--10--8----------------------------------
G|-----------------------------------------------------10--9--7------------0--0--0--0--
D|--------------------------------0------------------------------10--8--7--------------
A|-----8-----8-----8-----8-----8----------------7---7--7---7--8--8---8--8--0--8--7--0--
E|--8-----8-----8-----8-----8----------------------------------------------------------

http://www.guitartabcreator.com
Guitar Tab Creator is intended to store guitar tab created through the tool. It currently does not support in-line text editing. Any text you place in here will be lost. If you need to comment on your tab, please use the "Tab Notes" section located below.