Fix you

01234567891011121314151617181920212223
E
B
G
D
A
E
B
0 1 2 3 4 5 6 7 8 9 10 11 12 13 14 15 16 17 18 19 20 21 22 23
(/) Slide Up  (\) Slide Down  (h) Hammer On  (p) Pull Off  (b) Bend (r) Release (v) Vibrato

Capo Fret 3

Stave 1:

E|--------------------|--------------------|-----------3--------|--------------------|-----------------|-----------3--------|--------------------|--------------------|-----------3-----------------------------3-----------
B|--------3-----------|--------2-----------|--0-----------------|--------3-----------|-----2-----------|--0-----------------|--------3-----------|--------2-----------|--0--------------------3-----2--0--------------------
G|--------------------|--------------------|--------------------|--------------------|-----------------|--------------------|--------------------|--------------------|-----------------------------------------------------
D|--0--0--------------|--0--0--------------|--2-----0-----0-----|--0--0--------------|--0--------------|--2-----0-----0-----|--0--0--------------|--0--0--------------|--2-----0-----0-----------------------0-----0--------
A|--------------1-----|--------1--1--0-----|-----1-----------0--|-----------------1--|-----1--1--1--0--|-----1-----------0--|--------------1-----|--------1--1--0-----|-----1-----------1--3--3--------1--1-----------0-----
E|--------0--0--------|--------------------|--------------------|--------0--0--0-----|-----------------|--------------------|--------0--0--------|--------------------|--------------------------0--0-----------------------

Stave 2:

E|--------------------|--------------------|-----------3--------|--------------------|-----------------|-----------3--------|----------------------------------
B|--------3-----------|--------2-----------|--0-----------------|--------3-----------|-----2-----------|--0-----------------|--------3-------------2-----------
G|--------------------|--------------------|--------------------|--------------------|-----------------|--------------------|----------------------------------
D|--0--0--------------|--0--0--------------|--2-----0-----0-----|--0--0--------------|--0--------------|--2-----0-----0-----|--0--0----------------------------
A|--------------1-----|--------1--1--0-----|-----1-----------0--|-----------------1--|-----1--1--1--0--|-----1-----------0--|-------------------------3--3-----
E|--------0--0--------|--------------------|--------------------|--------0--0--0-----|-----------------|--------------------|--------0--0--0--0h1--0-----------

							http://www.guitartabcreator.com
Chords

Tab Notes
Am
Instruments
{"strings":[[[".",".",".",".",".",".","|",".",".",".",".",".",".","|",".",".",".",3,".",".","|",".",".",".",".",".",".","|",".",".",".",".",".","|",".",".",".",3,".",".","|",".",".",".",".",".",".","|",".",".",".",".",".",".","|",".",".",".",3,".",".",".",".",".",".",".",".",".",3,".",".","_"],[".",".",3,".",".",".","|",".",".",2,".",".",".","|",0,".",".",".",".",".","|",".",".",3,".",".",".","|",".",2,".",".",".","|",0,".",".",".",".",".","|",".",".",3,".",".",".","|",".",".",2,".",".",".","|",0,".",".",".",".",".",".",3,".",2,0,".",".",".",".",".","_"],[".",".",".",".",".",".","|",".",".",".",".",".",".","|",".",".",".",".",".",".","|",".",".",".",".",".",".","|",".",".",".",".",".","|",".",".",".",".",".",".","|",".",".",".",".",".",".","|",".",".",".",".",".",".","|",".",".",".",".",".",".",".",".",".",".",".",".",".",".",".",".","_"],[0,0,".",".",".",".","|",0,0,".",".",".",".","|",2,".",0,".",0,".","|",0,0,".",".",".",".","|",0,".",".",".",".","|",2,".",0,".",0,".","|",0,0,".",".",".",".","|",0,0,".",".",".",".","|",2,".",0,".",0,".",".",".",".",".",".",".",0,".",0,".","_"],[".",".",".",".",1,".","|",".",".",1,1,0,".","|",".",1,".",".",".",0,"|",".",".",".",".",".",1,"|",".",1,1,1,0,"|",".",1,".",".",".",0,"|",".",".",".",".",1,".","|",".",".",1,1,0,".","|",".",1,".",".",".",1,3,3,".",".",1,1,".",".",".",0,"_"],[".",".",0,0,".",".","|",".",".",".",".",".",".","|",".",".",".",".",".",".","|",".",".",0,0,0,".","|",".",".",".",".",".","|",".",".",".",".",".",".","|",".",".",0,0,".",".","|",".",".",".",".",".",".","|",".",".",".",".",".",".",".",".",0,0,".",".",".",".",".",".","_"]],[[".",".",".",".",".",".","|",".",".",".",".",".",".","|",".",".",".",3,".",".","|",".",".",".",".",".",".","|",".",".",".",".",".","|",".",".",".",3,".",".","|",".",".",".",".",".",".",".","_","_",".",".","."],[".",".",3,".",".",".","|",".",".",2,".",".",".","|",0,".",".",".",".",".","|",".",".",3,".",".",".","|",".",2,".",".",".","|",0,".",".",".",".",".","|",".",".",3,".",".",".",".","_",2,".",".","."],[".",".",".",".",".",".","|",".",".",".",".",".",".","|",".",".",".",".",".",".","|",".",".",".",".",".",".","|",".",".",".",".",".","|",".",".",".",".",".",".","|",".",".",".",".",".",".",".","_","_",".",".","."],[0,0,".",".",".",".","|",0,0,".",".",".",".","|",2,".",0,".",0,".","|",0,0,".",".",".",".","|",0,".",".",".",".","|",2,".",0,".",0,".","|",0,0,".",".",".",".",".","_","_",".",".","."],[".",".",".",".",1,".","|",".",".",1,1,0,".","|",".",1,".",".",".",0,"|",".",".",".",".",".",1,"|",".",1,1,1,0,"|",".",1,".",".",".",0,"|",".",".",".",".",".",".",".","_","_",3,3,"."],[".",".",0,0,".",".","|",".",".",".",".",".",".","|",".",".",".",".",".",".","|",".",".",0,0,0,".","|",".",".",".",".",".","|",".",".",".",".",".",".","|",".",".",0,0,0,0,"h",1,0,".",".","."]]],"numberofstrings":6,"notes":["E","B","G","D","A","E","B"],"capo":"3","stringnotes":["E4","B3","G3","D3","A2","E2"],"comments":["Stave 1:","Stave 2:"],"timing":[[null,"W","W","W","W","W",null,null,"W","W","W","W","W",null,null,"W","W","W","W","W","W",null,"W","W","W","W","W","W",null,"W","W","W","W","W",null,null,null,null,null,null,null,null,null,null,null,null,null,null,null,null,null,null,null,null,null,null,null,null,null,null,null,null,null,null,null,null,"W",null,null,null,null,null,"W","W"],[null,null,null,null,null,null,null,null,null,null,null,null,null,null,null,null,null,null,null,null,null,null,null,null,null,null,null,null,null,null,null,null,null,null,null,null,null,null,null,null,null,null,"W","W","W","W","W","W","W","W","W","W","W"]],"timingvisible":false,"tabcounter":53,"stave":1,"totalstaves":2,"instrument":"6guitar","selectedtuning":"6_standard","version":"13"}

Member for

1 week
Submitted by sprite77 on Mon, 2021-01-11 14:34