You'd be so nice

01234567891011121314151617181920212223
E
B
G
D
A
E
B
0 1 2 3 4 5 6 7 8 9 10 11 12 13 14 15 16 17 18 19 20 21 22 23
(/) Slide Up  (\) Slide Down  (h) Hammer On  (p) Pull Off  (b) Bend (r) Release (v) Vibrato

Stave 1:

C|-------------------------------------------------------------------------
G|----12-14-15----14-12-11-12-------------------12-15-12-------------------
D|-12-------------------------12----12-13-15-16-------------15-12----------
A|----------------------------------------------------------------15-13----
E|-------------------------------------------------------------------------

Stave 2:

C|----------------------------------------------12-14-------------14-13-14-13-------------------------------
G|----------------------14-17-14-15----12-14-15----------------15----------------15-17-15-14-------14-------
D|----12-13----12----16----------------------------------16-17----------------17-------------17-16----13-12-
A|-15-------15----------------------------------------------------------------------------------------------
E|----------------------------------------------------------------------------------------------------------

Stave 3:

C|----------------------------
G|----------------12-14-15----
D|-12-11-12-13-12-------------
A|----------------------------
E|----------------------------

							http://www.guitartabcreator.com
Chords

Instruments
{"strings":[[[".",".",".",".","_",".",".",".",".",".","_",".",".",".",".",".",".",".","_",".",".",".",".","_"],[".",12,14,15,"_",14,12,11,12,".","_",".",".",".",".",12,15,12,"_",".",".",".",".","_"],[12,".",".",".","_",".",".",".",".",12,"_",12,13,15,16,".",".",".","_",15,12,".",".","_"],[".",".",".",".","_",".",".",".",".",".","_",".",".",".",".",".",".",".","_",".",".",15,13,"_"],[".",".",".",".","_",".",".",".",".",".","_",".",".",".",".",".",".",".","_",".",".",".",".","_"]],[[".",".",".",".",".","_",".",".",".",".",".","_",".",".",".",12,14,"_",".",".",".",14,13,14,13,".",".",".",".",".",".",".",".",".","."],[".",".",".",".",".","_",".",14,17,14,15,"_",12,14,15,".",".","_",".",".",15,".",".",".",".",".",15,17,15,14,".",".",14,".","."],[".",12,13,".",12,"_",16,".",".",".",".","_",".",".",".",".",".","_",16,17,".",".",".",".",".",17,".",".",".",".",17,16,".",13,12],[15,".",".",15,".","_",".",".",".",".",".","_",".",".",".",".",".","_",".",".",".",".",".",".",".",".",".",".",".",".",".",".",".",".","."],[".",".",".",".",".","_",".",".",".",".",".","_",".",".",".",".",".","_",".",".",".",".",".",".",".",".",".",".",".",".",".",".",".",".","."]],[[".",".",".",".",".",".",".",".","_"],[".",".",".",".",".",12,14,15,"_"],[12,11,12,13,12,".",".",".","_"],[".",".",".",".",".",".",".",".","_"],[".",".",".",".",".",".",".",".","_"]]],"numberofstrings":5,"notes":["C","G","D","A","E"],"capo":0,"stringnotes":["C3","G2","D2","A1","E1"],"comments":["Stave 1:","Stave 2:","Stave 3:"],"timing":[[null,null,null,null,null,null,null,null,null,null,null,null,null,null,null,null,null,null,null,null,null,null,null],[null,null,null,null,null,null,null,null,null,null,null,null,null,null,null,null,null,null,null,null,null,null,null,null,null,null,null,null,null,null,null,null,null,null,null],[null,null,null,null,null,null,null,null]],"timingvisible":false,"tabcounter":9,"stave":2,"totalstaves":3,"instrument":"5bass","selectedtuning":"5bass_higher","version":"13"}

Member for

3 months 3 weeks
Submitted by splix on Mon, 2020-12-28 19:44