Sound will begin in 5 seconds

ponderless

01234567891011121314151617181920212223
E
B
G
D
A
E
B
0 1 2 3 4 5 6 7 8 9 10 11 12 13 14 15 16 17 18 19 20 21 22 23
(/) Slide Up  (\) Slide Down  (h) Hammer On  (p) Pull Off  (b) Bend (r) Release (v) Vibrato

Stave 1:

E|--8bp6v-----6--7--------------------------------------|--11--12-----------------------------------------
B|------------------8v--8/9--8--------------------------|----------13v--13/14--13-------------------------
G|------------------------------10v--10\8--8p6----------|--------------------------14v--14\12--12p10------
D|----------------------------------------------8--6/8--|---------------------------------------------12--
A|------------------------------------------------------|-------------------------------------------------
E|------------------------------------------------------|-------------------------------------------------

Stave 2:

E|---------------------------
B|---------------------------
G|-------------------15------
D|--10/12--12h15/17------17--
A|---------------------------
E|---------------------------

http://www.guitartabcreator.com
Guitar Tab Creator is intended to store guitar tab created through the tool. It currently does not support in-line text editing. Any text you place in here will be lost. If you need to comment on your tab, please use the "Tab Notes" section located below.