Sound will begin in 5 seconds

Oceans

01234567891011121314151617181920212223
E
B
G
D
A
E
B
0 1 2 3 4 5 6 7 8 9 10 11 12 13 14 15 16 17 18 19 20 21 22 23
Song Science #1: How Pros Use 6 Chords to Write Hit Songs
(/) Slide Up  (\) Slide Down  (h) Hammer On  (p) Pull Off  (b) Bend (r) Release (v) Vibrato

Stave 1:

E|--------7--------7----------14----------14---------9---------9---------9---------10--
B|-----8--------8---------15----------15---------10--------10--------10--------10------
G|-------------------------------------------------------------------------------------
D|--5--------5--------12----------12----------7---------7---------7---------7----------
A|-------------------------------------------------------------------------------------
E|-------------------------------------------------------------------------------------

Stave 2:

E|--------7--------7--------7---------9--
B|-----8--------8--------8--------10-----
G|---------------------------------------
D|--5--------5--------5--------7---------
A|---------------------------------------
E|---------------------------------------

Stave 3:

E|---------10---------10---------10----------12----------14----------14----------14----------14--
B|-----12---------12---------12----------14----------15----------15----------15----------15------
G|-----------------------------------------------------------------------------------------------
D|--9----------9----------9----------11----------12----------12----------12----------12----------
A|-----------------------------------------------------------------------------------------------
E|-----------------------------------------------------------------------------------------------

Stave 4:

E|---------9---------9---------9---------10--------7--------7--------7--------7--
B|-----10--------10--------10--------10---------8--------8--------8--------8-----
G|-------------------------------------------------------------------------------
D|--7---------7---------7---------7----------5--------5--------5--------5--------
A|-------------------------------------------------------------------------------
E|-------------------------------------------------------------------------------

Stave 5:

E|----------------------------------------------------------
B|--0--2--3--5--2--3--5--7--12--14--15--17--14--15--17--19--
G|----------------------------------------------------------
D|----------------------------------------------------------
A|----------------------------------------------------------
E|----------------------------------------------------------

Stave 6:

E|--------------------------------------------------------------------------------------------------
B|-----7-----7-----7-----5-----7-----7-----7-----7-----5-----5-----5-----5-----8-----8-----8-----8--
G|--7-----7-----7-----7-----7-----7-----7-----7-----7-----7-----7-----7-----9-----9-----9-----9-----
D|--------------------------------------------------------------------------------------------------
A|--------------------------------------------------------------------------------------------------
E|--------------------------------------------------------------------------------------------------

Stave 7:

E|-----------------------------------------------------------------------
B|--7--5--10--5--10--12--14--15--19--17--20--19--17--20--14--15--17--19--
G|-----------------------------------------------------------------------
D|-----------------------------------------------------------------------
A|-----------------------------------------------------------------------
E|-----------------------------------------------------------------------

http://www.guitartabcreator.com
Guitar Tab Creator is intended to store guitar tab created through the tool. It currently does not support in-line text editing. Any text you place in here will be lost. If you need to comment on your tab, please use the "Tab Notes" section located below.