Sound will begin in 5 seconds

My Soul Sings

Chords
01234567891011121314151617181920212223
E
B
G
D
A
E
B
0 1 2 3 4 5 6 7 8 9 10 11 12 13 14 15 16 17 18 19 20 21 22 23
Song Science #1: How Pros Use 6 Chords to Write Hit Songs
(/) Slide Up  (\) Slide Down  (h) Hammer On  (p) Pull Off  (b) Bend (r) Release (v) Vibrato

Stave 1:

E|---------------
B|--13--8--6--5--
G|------5--5--5--
D|--10-----------
A|---------------
E|---------------

Stave 2:

E|-------------------------------------------------------------------
B|--5--6--5--8--5--6--5--------------9-----9-----10--10--12--12--13--
G|--5--5--5--5--5--5--5-----------9-----9-----8----------------------
D|--5--5--5--5--5--5--5----------------------------------------------
A|-------------------------------------------------------------------
E|-------------------------------------------------------------------

Stave 3:

E|--------------12--
B|------13----------
G|--12------12------
D|------------------
A|------------------
E|------------------

Stave 4:

E|--------------------------------------------------------------------------------------
B|--13--12--13--8--6--5--13--12--10--8--6--5--13--12--13--12--13--8--6--5--13--8--6--5--
G|--------------5--5--5----------10--5--5--5--10--10--10--10--10--5--5--5--10--5--5--5--
D|--10--10--10--5--5--5--10--10--10--5--5--5--10--10--10--10--10--5--5--5--10--5--5--5--
A|--------------------------------------------------------------------------------------
E|--------------------------------------------------------------------------------------

Stave 5:

E|-----------------------------------------------------------------
B|--13------12------10------10--12--13------12------10------10-----
G|------12------12------12--------------12------12------12---------
D|-----------------------------------------------------------------
A|-----------------------------------------------------------------
E|-----------------------------------------------------------------

http://www.guitartabcreator.com
Guitar Tab Creator is intended to store guitar tab created through the tool. It currently does not support in-line text editing. Any text you place in here will be lost. If you need to comment on your tab, please use the "Tab Notes" section located below.