Sound will begin in 5 seconds

Gravity

Chords
01234567891011121314151617181920212223
E
B
G
D
A
E
B
0 1 2 3 4 5 6 7 8 9 10 11 12 13 14 15 16 17 18 19 20 21 22 23
Song Science #1: How Pros Use 6 Chords to Write Hit Songs
(/) Slide Up  (\) Slide Down  (h) Hammer On  (p) Pull Off  (b) Bend (r) Release (v) Vibrato

Stave 1:

E|--3-----3-----5--5--3--5--5--3--6-----
B|--3--5--3--5--5--5--3--5--5--3--8--7--
G|--4--5--4--5--5--5--4--5--5--4--7--5--
D|--5--5--5--5--5--7--5--5--7--5--8--4--
A|--5--3--5--3--7--5-----7--5-----6--5--
E|--------------5--------5--------------

Stave 2:

E|---------------
B|-------8--8b10b
G|--7/9----------
D|---------------
A|---------------
E|---------------

Stave 3:

E|--------------------------------------------------------------------19----------17--
B|--10h12--12/15--12--10--12--10h12--12/17--15p12--10--12--8--15--17------15--17------
G|------------------------------------------------------------------------------------
D|------------------------------------------------------------------------------------
A|------------------------------------------------------------------------------------
E|------------------------------------------------------------------------------------

Stave 4:

E|----------19----------17----------19v-------------------------------------------------
B|--15--17------15--17------15--17-------20----------------15--17--10--8h10--10/15--13--
G|-------------------------------------------19b16--14/16-------------------------------
D|--------------------------------------------------------------------------------------
A|--------------------------------------------------------------------------------------
E|--------------------------------------------------------------------------------------

http://www.guitartabcreator.com
Guitar Tab Creator is intended to store guitar tab created through the tool. It currently does not support in-line text editing. Any text you place in here will be lost. If you need to comment on your tab, please use the "Tab Notes" section located below.