Sound will begin in 5 seconds

Untitled

01234567891011121314151617181920212223
E
B
G
D
A
E
B
0 1 2 3 4 5 6 7 8 9 10 11 12 13 14 15 16 17 18 19 20 21 22 23
Song Science #1: How Pros Use 6 Chords to Write Hit Songs
(/) Slide Up  (\) Slide Down  (h) Hammer On  (p) Pull Off  (b) Bend (r) Release (v) Vibrato

Stave 1:

E|--------------------------------------------------------------------------------
B|-----------0--------7-----------------0-----------------0--------------0-----0--
G|--------0-----0--------7-----------0-----0-----------0-----0--------0-----0-----
D|-----0-----------0--------------5-----------5-----7--------------9--------------
A|--2--------------------------3-----------------5--------------7-----------------
E|--------------------------------------------------------------------------------

Stave 2:

E|----------------------------------------------------------
B|-----------------------------0----------------------------
G|--------------------------4-----4-------------------------
D|--9--0--7/12--0--9-----4-----------4--------4--3/5--3--0--
A|--------------------2--------------------4----------------
E|--------------------------------------2-------------------

Stave 3:

E|-----------------------------------------------------------------------------
B|-----0--------0--------2--------4--------6--0--7-----------------------------
G|--4-----0--2-----0--5-----0--7-----0--9-----------5--9--7--8--10--9--10--12--
D|-----------------------------------------------------------------------------
A|-----------------------------------------------------------------------------
E|-----------------------------------------------------------------------------

Stave 4:

E|-------------------------------------------------------------------------
B|-------------------------------------------------------------------------
G|--12--11--------------------------------------12--11---------------------
D|----------12--10--9--12------7--9--0--10--12----------12--10--9--12--5b7b
A|-------------------------10----------------------------------------------
E|-------------------------------------------------------------------------

Stave 5:

E|-----------------------------------------------------------------
B|----------------------------------------------12--10-------------
G|--12--11----------------------------------------------12--11--12/
D|----------12--10--9--12------7--9--0--10--12---------------------
A|-------------------------10--------------------------------------
E|-----------------------------------------------------------------

Stave 6:

E|-------------
B|-------------
G|--14--12--12\
D|-------------
A|-------------
E|-------------

Stave 7:

E|----------------------------------------
B|----------------------------------------
G|--------0--------0--------0h1--------0--
D|-----0--------0--------4----------2-----
A|--2--------3--------4----------3--------
E|----------------------------------------

http://www.guitartabcreator.com
Guitar Tab Creator is intended to store guitar tab created through the tool. It currently does not support in-line text editing. Any text you place in here will be lost. If you need to comment on your tab, please use the "Tab Notes" section located below.