Sound will begin in 5 seconds

Diggin a hole (guitar)

Chords
01234567891011121314151617181920212223
E
B
G
D
A
E
B
0 1 2 3 4 5 6 7 8 9 10 11 12 13 14 15 16 17 18 19 20 21 22 23
Song Science #1: How Pros Use 6 Chords to Write Hit Songs
(/) Slide Up  (\) Slide Down  (h) Hammer On  (p) Pull Off  (b) Bend (r) Release (v) Vibrato

Stave 1:

E|-----------------------------------------------------------------
B|-----------------------------------------------------------------
G|-----------------------------------5---5---5---5-----------------
D|---7---7---7---7---5---5---5---5-3---3---3---3-----7---7---7---7-
A|-5---5---5---5---3---3---3---3-------------------5---5---5---5---
E|-----------------------------------------------------------------

Stave 2:

E|-----------------------------------------------------------------
B|-----------------------------------------------------------------
G|-----------------------------------------------------------------
D|---7---7---7---7---5---5---5---5---3---3---3---3---5---5---5---5-
A|-5---5---5---5---3---3---3---3---5---5---5---5---3---3---3---3---
E|-----------------------------------------------------------------

Stave 3:

E|-----------------------------------------------------------------
B|-----------------------------------------------------------------
G|-----------------------------------------------------------------
D|---7---7---7---7---5---5---5---5---3---3---3---3---4---4---4---4-
A|-5---5---5---5---3---3---3---3---5---5---5---5---5---5---5---5---
E|-----------------------------------------------------------------

Stave 4:

E|---------------------------------------------
B|---------------------------------------------
G|---------------------------------------------
D|---------------------------------------------
A|-7-7-7-7-7-7-7-7-7-7-9-9-9-5-5-5-7-7-7-5-5-5-
E|-0-0-0-0-0-0-0-0-0-0-7-7-7-3-3-3-5-5-5-3-3-3-

Stave 5:

E|--------------------------------------------
B|--------------------------------------------
G|--------------------------------------------
D|------------------------------------------9-
A|-7-7-7-7-7-7-7-7-7-7-7-7-7-9-9-9-10-10-10-7-
E|-0-0-0-0-0-0-0-0-0-0-5-5-5-7-7-7-8--8--8----

Stave 6:

E|------------------------------------------------
B|------------------------------------------------
G|------------------------------------------------
D|---------------------10-10-10-9-9-9-7-7-7-5-5-5-
A|-7-7-7-7-7-7-7-7-7-7-8--8--8--7-7-7-5-5-5-3-3-3-
E|-5-5-5-5-5-5-5-5-5-5----------------------------

Stave 7:

E|---------------------------------------------------------------------------------
B|---------------------------------------------------------------------------------
G|---------------------------------------------------------------------------------
D|-----------------------------------------9-9-9-9-9-9-9-9-9-9---------------------
A|-9-9-9-9-9-9-9-9-9-9-7-7-7-7-7-7-7-7-7-7-7-7-7-7-7-7-7-7-7-7-5-5-5-5-5-5-5-5-5-5-
E|-7-7-7-7-7-7-7-7-7-7-5-5-5-5-5-5-5-5-5-5---------------------3-3-3-3-3-3-3-3-3-3-

Stave 8:

E|---------------------------------------------------------------
B|---------------------------------------------------------------
G|---------------------------------------------------------------
D|---------------------------------------------------------------
A|-9-9-9-9-9-7-7-7-7-7-5-5-5-5-5-4-4-4-4-4-5-5-5-5-5-5-5-5-5-5-5-
E|-7-7-7-7-7-5-5-5-5-5-3-3-3-3-3-2-2-2-2-2-3-3-3-3-3-3-3-3-3-3-3-

Stave 9:

E|---------------------------------------------------------------
B|---------------------------------------------------------------
G|---------------------------------------------------------------
D|---------------------------------------------------------------
A|-5-5-5-5-5-5-5-5-5-5-6-6-6-6-6-6-6-6-6-6-3-3-3-3-3-3-3-3-3-3-5-
E|-3-3-3-3-3-3-3-3-3-3-3-3-3-3-3-3-3-3-3-3-3-3-3-3-3-3-3-3-3-3-3-

Stave 10:

E|---------------------------------------------------------------------------------
B|---------------------------------------------------------------------------------
G|---------------------------------------------------------------------------------
D|---------------------------------------------------------------------------------
A|-5-5-5-5-5-5-5-5-5-6-6-6-6-6-6-6-6-6-6-3-3-3-3-3-3-3-3-3-3-2-2-2-2-2-2-2-2-2-2-2-
E|-3-3-3-3-3-3-3-3-3-3-3-3-3-3-3-3-3-3-3-3-3-3-3-3-3-3-3-3-3-3-3-3-3-3-3-3-3-3-3-3-

Stave 11:

E|-----------------------------------------
B|-----------------------------------------
G|-----------------------------------------
D|-----------------------------------------
A|-9-9-9-9-9-9-9-9-9-9-7-7-7-7-7-7-7-7-7-7-
E|-7-7-7-7-7-7-7-7-7-7-5-5-5-5-5-5-5-5-5-5-

Stave 12:

E|---------------
B|---------------
G|---------------
D|---------------
A|-9-9-9-9-9-9---
E|-7-7-7-7-7-7---

Stave 13:

E|--------------------------------------------------------------------
B|--------------------------------------------------------------------
G|--------------------------------------------------------------------
D|--------------------------------------------------------------------
A|-9-9-10-9-7-5-7-8-7-7-7-8-7-5-3-5-6-5-5-5-6-5-3-2-3-2-0-3-2-0-----2-
E|-7------------------5-----------------3-----------------------3-2-0-

http://www.guitartabcreator.com
Guitar Tab Creator is intended to store guitar tab created through the tool. It currently does not support in-line text editing. Any text you place in here will be lost. If you need to comment on your tab, please use the "Tab Notes" section located below.