Sound will begin in 5 seconds

Wedding Day fills

Chords
01234567891011121314151617181920212223
E
B
G
D
A
E
B
0 1 2 3 4 5 6 7 8 9 10 11 12 13 14 15 16 17 18 19 20 21 22 23
Song Science #1: How Pros Use 6 Chords to Write Hit Songs
(/) Slide Up  (\) Slide Down  (h) Hammer On  (p) Pull Off  (b) Bend (r) Release (v) Vibrato

Stave 1:

E|--------------------------------------12--7h9--12--7h9--
B|--------------------12--7h9--12--7h9--------------------
G|--12--7h9--12--7h9--------------------------------------
D|--------------------------------------------------------
A|--------------------------------------------------------
E|--------------------------------------------------------

Stave 2:

E|-----------------------------------------------
B|---------------------12--13--12--10--12-----12/
G|--7/9--7/9--7/9--12--9-------------------------
D|--7-9--7-9--7-9--12--9---10--9---7---9------9--
A|--5-7--5-7--5-7--10----------------------------
E|-----------------------------------------------

Stave 3:

E|--------------------------------------------------------------------14--16\
B|--14--16--17--16--14---------------------14/16--17--16--17--16--14---------
G|----------------------16--13---------14------------------------------------
D|------------------------------13/14----------------------------------------
A|---------------------------------------------------------------------------
E|---------------------------------------------------------------------------

Stave 4:

E|---------------------------------------------------------------------------
B|--14--16--17--16--14----------------------------------------9--10--12--13--
G|----------------------16----------13--14--16---------9--11-----------------
D|--------------------------13--14--------------9--11------------------------
A|---------------------------------------------------------------------------
E|---------------------------------------------------------------------------

Stave 5:

E|--
B|--
G|--
D|--
A|--
E|--

Stave 6:

E|-----4--6--
B|--6--------
G|-----------
D|-----------
A|-----------
E|-----------

http://www.guitartabcreator.com
Guitar Tab Creator is intended to store guitar tab created through the tool. It currently does not support in-line text editing. Any text you place in here will be lost. If you need to comment on your tab, please use the "Tab Notes" section located below.