Sound will begin in 5 seconds

George's Prayer 2

Chords
01234567891011121314151617181920212223
E
B
G
D
A
E
B
0 1 2 3 4 5 6 7 8 9 10 11 12 13 14 15 16 17 18 19 20 21 22 23
Song Science #1: How Pros Use 6 Chords to Write Hit Songs
(/) Slide Up  (\) Slide Down  (h) Hammer On  (p) Pull Off  (b) Bend (r) Release (v) Vibrato

Stave 1:

E|----3----3----3----3----5----5----3----3----
B|----5----5----3----3----5----5----3----3----
G|----5----5----4----4----5----5----4----4----
D|--------------------------------------------
A|--------------------------------------------
E|--------------------------------------------

Stave 2:

E|----5----5----5----5----5----5----0----
B|----6----6----6----6----6----6----1----
G|----5----5----7----7----5----5----2----
D|----------------------------------3----
A|---------------------------------------
E|----------------------------------3----

Stave 3:

E|----5----5----3----3----5----5----0----
B|----5----5----3----3----6----6----1----
G|----5----5----4----4----5----5----2----
D|----------------------------------3----
A|---------------------------------------
E|----------------------------------3----

Stave 4:

E|----5----5----5----5----5----5----5----5----5----0----
B|----6----6----6----6----6----6----6----6----6----1----
G|----5----5----7----7----5----5----7----7----5----2----
D|-------------------------------------------------3----
A|------------------------------------------------------
E|-------------------------------------------------3----

Stave 5:

E|----0----0----3----0----
B|----1----0----3----1----
G|----2----0----4----2----
D|----3----0----0----3----
A|---------2--------------
E|---------0---------3----

Stave 6:

E|----3----3----3----3----5----5----
B|----5----5----3----3----5----5----
G|----5----5----4----4----5----5----
D|----------------------------------
A|----------------------------------
E|----------------------------------

http://www.guitartabcreator.com
Guitar Tab Creator is intended to store guitar tab created through the tool. It currently does not support in-line text editing. Any text you place in here will be lost. If you need to comment on your tab, please use the "Tab Notes" section located below.