Sound will begin in 5 seconds

casualty

Chords
01234567891011121314151617181920212223
E
B
G
D
A
E
B
0 1 2 3 4 5 6 7 8 9 10 11 12 13 14 15 16 17 18 19 20 21 22 23
Song Science #1: How Pros Use 6 Chords to Write Hit Songs
(/) Slide Up  (\) Slide Down  (h) Hammer On  (p) Pull Off  (b) Bend (r) Release (v) Vibrato

Stave 1:

E|-----------------------------------------------------------
B|--------------------8--5-----------------------------------
G|--------------------------7--5-----------------------------
D|--7--7-----7--7-----------------7--5--7--7--------7--------
A|--7--7-----7--7-----------------------7--7--------5--5-----
E|--5--5-----5--5-----------------------5--5-----------3-----

Stave 2:

E|---------------------------------
B|------------------8--5-----------
G|--------------b7--------7--5-----
D|---------------------------------
A|--7--7------------------------7--
E|--5--5------------------------5--

Stave 3:

E|--
B|--
G|--
D|--
A|--
E|--

Stave 4:

E|---------------------------------------------------------------------------------|-----------------------------------
B|--------------5--5------------------------------------------8--------------------|-----------------------------------
G|--------------------------------------7/9--7/9--7--5--7--------8--7--5-----------|--------------5--5-----------------
D|--7--7--5--7--------5--7-----5--7--5---------------------7--------------5--7--5--|--7--7--5--7--------5--7--5--7--5--
A|---------------------------------------------------------------------------------|-----------------------------------
E|---------------------------------------------------------------------------------|-----------------------------------

Stave 5:

E|---------------------------------------------|-----------------------------------
B|------------------------8--------------------|-----------------------------------
G|--7/9--7/9--7--5--7--------8--7--5-----------|--------------5--5-----------------
D|---------------------7--------------5--7--5--|--7--7--5--7--------5--7--5--7--5--
A|---------------------------------------------|-----------------------------------
E|---------------------------------------------|-----------------------------------

Stave 6:

E|--------------------------------------------|---------------------|-------
B|-----------------------5--5-----------------|---------------------|-------
G|--7--7-----------------4--4-----------------|---------------9--8--|-----9\
D|--7--7--5--7--5--7--5--------5--7--5--7--5--|--7--7-----10--9--8--|-----9-
A|--------------------------------------------|--7--7-----10--7--6--|-----7-
E|--------------------------------------------|--5--5-----8---------|-------

Stave 7:

E|---------------------------|-----
B|--10--8--------------------|-----
G|---------8--7--5-----------|-----
D|------------------7--7-----|--7--
A|------------------------7--|--7--
E|---------------------------|--5--

http://www.guitartabcreator.com
Guitar Tab Creator is intended to store guitar tab created through the tool. It currently does not support in-line text editing. Any text you place in here will be lost. If you need to comment on your tab, please use the "Tab Notes" section located below.