Sound will begin in 5 seconds

Truth

01234567891011121314151617181920212223
E
B
G
D
A
E
B
0 1 2 3 4 5 6 7 8 9 10 11 12 13 14 15 16 17 18 19 20 21 22 23
Song Science #1: How Pros Use 6 Chords to Write Hit Songs
(/) Slide Up  (\) Slide Down  (h) Hammer On  (p) Pull Off  (b) Bend (r) Release (v) Vibrato

Stave 1:

G|------------------------------------------------------------------------------------------
D|------------------------------------------------------------------------------------------
A|------------------------------------------------2--4--------------6--7--------------------
E|--4h5-----------------------4h5-----------------------------------------------------------

Stave 2:

G|------------------------------------------------------------------------------------------
D|------------------------------------------------------------------------------------------
A|------------------------------------------------2--4--------------9--7--------------------
E|--4h5-----------------------4h5-----------------------------------------------------7-----

Stave 3:

G|--------------------------------------------------------------------------------------------------
D|--------------------------------------------------------------------------------------------------
A|--------------------------------------------------------------------------------------------------
E|--5--5--5--5--5--5--5--5--5--5--5--5--5--5--5--5--0--0--0--0--0--0--0--0--7--7--7--7--7--7--7--7--

Stave 4:

G|--------------------------------------------------------------------------------------------------
D|--------------------------------------------------------------------------------------------------
A|--------------------------------------------------------------------------------------------------
E|--5--5--5--5--5--5--5--5--5--5--5--5--5--5--5--5--0--0--0--0--0--0--0--0--7--7--7--7--7--7--7--7--

Stave 5:

G|--------------------------------------------------------------------------------------------
D|--------------------------------------------------------------------------------------------
A|-----------4--------------------------------4--------------2--4--------------9--7-----------
E|--4--5--7-----7--5--4-----2-----0--4--5--7-----7--5--4--------------------------------------

Stave 6:

G|--------------------------------------------------------------------------------------------
D|--------------------------------------------------------------------------------------------
A|-----------4--------------------------------4-----------------2--4-----------9--7-----------
E|--4--5--7-----7--5--4-----2-----0--4--5--7-----7--5--4-----2--------------------------------

Stave 7:

G|-----------------------------------------------------------------------------------------------
D|-----------------------------------------------------------------------------------------------
A|-----------------------------------------------------------------------------------------------
E|--5-----------5--5--------5-----------5--5--------4-----------4--4--------4--------4--4-----4--

Stave 8:

G|--------------------------------------------------------------------------------------------------
D|--------------------------------------------------------------------------------------------------
A|--------------------------------------------------------------------------------------------------
E|--5-----------5--5--------5-----------5--5--------7-----------7--7-----7--8--8--8--8--8--8--8--8--

Stave 9:

G|--------------------------------------------------------------------------------------------------
D|--------------------------------------------------------------------------------------------------
A|--4--4--4--4--4--4--4--4--4--4--4--4--4--4--4--4--6--6--6--6--6--6--6--6--6--6--6--6--6--6--6--6--
E|--------------------------------------------------------------------------------------------------

Stave 10:

G|--------------------------------------------------------------------------------------------------
D|--------------------------------------------------------------------------3--3--3--3--3--3--3--3--
A|--7-----------------------------------------------------------------------------------------------
E|-----0--0--0--0--0--0--0--0--0--0--0--0--0--0--0--1--1--1--1--1--1--1--1--------------------------

Stave 11:

G|--------------------------------------------------------------------------------
D|--------------------------------------------------------------------------------
A|--------------------------------------------------------------------------------
E|--4--4--4--4--4--4-----4-----4-----4-----4--4--4--4--4--4-----4-----4-----4-----

Stave 12:

G|--------------------------------------------------------------------------------------------------
D|--------------------------------------------------------------------------------------------------
A|--------------------------------------------------------------------------------------------------
E|--4-----------4-----------4-----------4-----------4-----------4-----------4-----------4-----------

Stave 13:

G|--------------------------------
D|--------------------------------
A|--------------------------------
E|--7-----7-----7-----7-----7--7--

Stave 14:

G|--------------------------------------------------------------------------------------------------
D|--------------------------------------------------------------------------------------------------
A|--------------------------------------------------------------------------------------------------
E|--5--5--5--5--5--5--5--5--5--5--5--5--5--5--5--5--0--0--0--0--0--0--0--0--7--7--7--7--7--7--7--7--

Stave 15:

G|--------------------------------------------------------------------------------------------------
D|--------------------------------------------------------------------------------------------------
A|--------------------------------------------------------------------------------------------------
E|--5--5--5--5--5--5--5--5--5--5--5--5--5--5--5--5--0--0--0--0--0--0--0--0--7--7--7--7--7--7--7--7--

Stave 16:

G|--------------------------------------------------------------------------
D|--------------------------------------------------------------------------
A|-----------------------------------7--------------------------------------
E|--5--5-----5--5-----5--5--5-----------4--5--5-----5--5-----5--5--5--------

Stave 17:

G|-----------------------------------------------------
D|--------------------6--6--------6--------6-----6--6--
A|-----------------------------------------------------
E|--4--4--4--4--4--4--------4--------4--------4--------

http://www.guitartabcreator.com
Guitar Tab Creator is intended to store guitar tab created through the tool. It currently does not support in-line text editing. Any text you place in here will be lost. If you need to comment on your tab, please use the "Tab Notes" section located below.