Sound will begin in 5 seconds

Studio Dudio

01234567891011121314151617181920212223
E
B
G
D
A
E
B
0 1 2 3 4 5 6 7 8 9 10 11 12 13 14 15 16 17 18 19 20 21 22 23
Song Science #1: How Pros Use 6 Chords to Write Hit Songs
(/) Slide Up  (\) Slide Down  (h) Hammer On  (p) Pull Off  (b) Bend (r) Release (v) Vibrato

Stave 1:

G|-----2h5p2---------------------------------2h5p2------------------7--7--7--7--7--
D|--3------------2h5p2-----4-----7--7--7--3------------2h5p2-----7-----------------
A|------------3---------5-----5---------------------3---------5--------------------
E|---------------------------------------------------------------------------------

Stave 2:

G|-----------------------------------------7-----7-----------------------------------------7-----7--
D|--3-----3-----------------------------------------3-----3-----------------------------------------
A|--------------3-----3-----5-----5-----5-----5-----------------3-----3-----5-----5-----5-----5-----
E|--------------------------------------------------------------------------------------------------

Stave 3:

G|--------------------------------------------------
D|--3--3--3--3--------------------------------------
A|--------------3--3--3--3--5--5--5--5--5--5--5--5--
E|--------------------------------------------------

Stave 4:

G|--------------------6-----------------------5-----------------------6-----------------------------
D|-----------------6-----6-----------------5-----5-----------------6-----6--------------------------
A|--4--4--4--4--4-----------3--3--3--3--3-----------4--4--4--4--4-----------5-----5-----5-----5-----
E|--------------------------------------------------------------------------------------------------

Stave 5:

G|-----------------------------------------------------------------------
D|-----------------------------------------------------------------------
A|--5--------5--------5--------5--------5--------5--------5--------5-----
E|-----6--------6--------6--------6--------6--------6--------6--------6--

Stave 6:

G|-----------------------------------
D|-----------------------------------
A|-----------3--3-----5--------------
E|--1-----1--------------------------

Stave 7:

G|-----2--5--2-----------------------------------------2--5--2--------------------------------------
D|--3--------------2--5--2-----4--7--4-----4--7--4--3--------------2--5--2-----4--7--4-----4--7--4--
A|--------------3-----------5-----------5-----------------------3-----------5-----------5-----------
E|--------------------------------------------------------------------------------------------------

Stave 8:

G|-----2--5--2--------------------------
D|--3--------------2--5-----------------
A|--------------3--------3--5-----------
E|--------------------------------------

Stave 9:

G|-----------------------------------------7-----7-----------------------------------------7-----7--
D|--3-----3-----------------------------------------3-----3-----------------------------------------
A|--------------3-----3-----5-----5-----5-----5-----------------3-----3-----5-----5-----5-----5-----
E|--------------------------------------------------------------------------------------------------

Stave 10:

G|--------------------------------------------------
D|--3--3--3--3--------------------------------------
A|--------------3--3--3--3--5--5--5--5--5--5--5--5--
E|--------------------------------------------------

Stave 11:

G|--------------------6-----------------------5-----------------------6-----------------------------
D|-----------------6-----6-----------------5-----5-----------------6-----6--------------------------
A|--4--4--4--4--4-----------3--3--3--3--3-----------4--4--4--4--4-----------5-----5-----5-----5-----
E|--------------------------------------------------------------------------------------------------

Stave 12:

G|-----------------------------------------------------------------------------------
D|-----------------------------------------------------------------------------------
A|--5--------5--------5--------5--------5--------5--------5--------5-----------------
E|-----6--------6--------6--------6--------6--------6--------6--------6--4--4--4--4--

Stave 13:

G|--------------------------------------------------------------------------------------------------
D|--------------------------------------------------------3-----------------------------------------
A|--------------------------------------------5-----------------3-----5--3--5-----------------5-----
E|--6-----6-----6-----6-----------------------------------------------------------------------------

http://www.guitartabcreator.com
Guitar Tab Creator is intended to store guitar tab created through the tool. It currently does not support in-line text editing. Any text you place in here will be lost. If you need to comment on your tab, please use the "Tab Notes" section located below.