Sound will begin in 5 seconds

Cancelled Plans

01234567891011121314151617181920212223
E
B
G
D
A
E
B
0 1 2 3 4 5 6 7 8 9 10 11 12 13 14 15 16 17 18 19 20 21 22 23
Song Science #1: How Pros Use 6 Chords to Write Hit Songs
(/) Slide Up  (\) Slide Down  (h) Hammer On  (p) Pull Off  (b) Bend (r) Release (v) Vibrato

Stave 1:

G|--------------------------------------------------------------------------------------------------------
D|--------------------------------------------------------------------------------------------------------
A|--6-----------------------3-----------------------------------------------------------2-----------------
E|--------------------------------------------------4-----------------------1-----------------------------

Stave 2:

G|--------------------------------------------------------------------------------------------------
D|--------------------------------------------------------------------------------------------------
A|--3-----------1-----------------------------------3-----------1-----------------------------------
E|--------------------------4-----------4-----------------------------------4-----------4-----------

Stave 3:

G|--------------------------------------------------------------------------
D|--------------------------------------------------------------------------
A|--3-----------1-----------------------------------2--------------------8--
E|--------------------------4-----------4-----------------------------------

Stave 4:

G|--------------------------------------------------------------------------------------------------
D|--------------------------------------------------------------------------------------------------
A|--6-----------6-----------3-----------3-----------------------------------------------2-----------
E|--------------------------------------------------4--------4--4-----------1-----------------------

Stave 5:

G|--------7--8--10--12--10--8--------------------------------
D|-----8------------------------------8--10--12--13--12--10--
A|--6-----------------------------10-------------------------
E|-----------------------------8-----------------------------

Stave 6:

G|------------------------------------------------4--
D|--------5--6--8--10--8--6--5--0--1--3--------3-----
A|-----6------------------------------------2--------
E|--4------------------------------------1-----------

Stave 7:

G|---------------------------------------------------
D|--------5--6--8--10--8--6--5--0--1--3--------------
A|-----6---------------------------------2--2--2--2--
E|--4------------------------------------------------

Stave 8:

G|--------------------------------------------------------------------------------------------------
D|--------------------------------------------------------------------------------------------------
A|--3--3--3--3--3--3--3--3--2--2--2--2--2--2--2--2--1--1--1--1--1--1--1--1--------------------------
E|--------------------------------------------------------------------------5--5--5--5--5--5--5--5--

Stave 9:

G|--------------------------------------------------------------------------
D|--------------------------------------------------------------------------
A|--------------------------------------------------2--2--2--2--2--2--2--2--
E|--4-----4-----4-----4-----4-----4-----4-----4-----------------------------

Stave 10:

G|---------------------------------------------------------8------10--------
D|-----------------------------------------------------10-----10------------
A|--------------------------------------------------8-----------------------
E|--4-----4-----4-----4-----4-----4-----4-----4-----------------------------

Stave 11:

G|--------------------------------------------------------
D|--------------------------------------------------------
A|-----------------------------------------5-----6-----5--
E|--4-----------6-----6-----6--8--------------------------

Stave 12:

G|--------------------------------------------------------------------------------------------------
D|--------------------------------------------------------------------------------------------------
A|--------------------------------------------------------------------------------------------------
E|--4-----------6-----6-----6--8--8--8--8--8--8--10--10--10--11--11--10-----------------------------

http://www.guitartabcreator.com
Guitar Tab Creator is intended to store guitar tab created through the tool. It currently does not support in-line text editing. Any text you place in here will be lost. If you need to comment on your tab, please use the "Tab Notes" section located below.