Sound will begin in 5 seconds

Amy

Chords
01234567891011121314151617181920212223
E
B
G
D
A
E
B
0 1 2 3 4 5 6 7 8 9 10 11 12 13 14 15 16 17 18 19 20 21 22 23
Song Science #1: How Pros Use 6 Chords to Write Hit Songs
(/) Slide Up  (\) Slide Down  (h) Hammer On  (p) Pull Off  (b) Bend (r) Release (v) Vibrato

Stave 1:

G|--------------------------------------------------------------------------------------------------
D|--------------------------------------------------------------------------------------------------
A|--5-----------------------------------------------5-----------------------------------------------
E|--------------------5--5--6-----------------------------------------5--5--6-----------------------

Stave 2:

G|--------------------5-----------------------------------------------------------------------------
D|-----------3-----------------------3--------------------------------------------------------------
A|--5--5--5-----5--5-----5--5--5--5-----------3--------------5--------8--------------5--------8--6--
E|--------------------------------------5--5-----5--6--6--6-----6--6-----6--6--6--6-----6--6--------

Stave 3:

G|--------------------5-----------------------------------------------------------------------------
D|-----------3-----------------------3--------------------------------------------------------------
A|--5--5--5-----5--5-----5--5--5--5-----------3--------------5--------8--------------5--------8-----
E|--------------------------------------5--5-----5--6--6--6-----6--6-----6--6--6--6-----6--6-----5--

Stave 4:

G|--------------------------------------------------------------------------------------------------
D|--------------------------------------------------------------------------------------------------
A|--------------------------6--------6--6-----------------------------------------------------------
E|--3--------3--3-----------------------------------6--------6--6-----------5--5--5--5--6--8--0--1--

Stave 5:

G|--------------------------------------------------------------------------------------------------
D|--------------------------------------------------------------------------------------------------
A|--------------------------6--6--6--6--6--6--6--6--------------------------------------------------
E|--3--3--3--3--3--3--3--3--------------------------6--6--6--6--6--6--6--6--5--5--5--5--5--5--5--5--

Stave 6:

G|--------------------------------------------------
D|--------------------------------------------------
A|--------------------------------------------------
E|--3-----------------------6-----------------------

Stave 7:

G|--------------------------------------------------------------------------------------------------
D|--------------------------------------------------------------------------------------------------
A|--5--5--5--5--5--5--5--5--5--5--5--5--------------------------------------------------------------
E|--------------------------------------5--5--5--5--6--6--6--6--6--6--6--6--6--6--6--6--6--6--6--6--

Stave 8:

G|--------------------------------------------------------------------------------------------------
D|--------------------------------------------------------------------------------------------------
A|--5--------5--5-----------------------------------5--------5--5-----------------------------------
E|--------------------5--5--6-----------------------------------------5--5--6-----------------------

Stave 9:

G|--7--------7--7-----2--2--3-----------------------7--------7--7-----2--2--3-----------------------
D|--7--------7--7-----2--2--3-----------------------7--------7--7-----2--2--3-----------------------
A|--5--------5--5-----0--0--1-----------------------5--------5--5-----0--0--1-----------------------
E|--------------------------------------------------------------------------------------------------

Stave 10:

G|--7-----------------------------------------------------------------------------------------
D|--7--------------------------------------------------------------------------------------3--
A|--5-----------------------------------------------5-----------------------------------------
E|-----------------------------------------------------------------5--5--6-----------------1--

http://www.guitartabcreator.com
Guitar Tab Creator is intended to store guitar tab created through the tool. It currently does not support in-line text editing. Any text you place in here will be lost. If you need to comment on your tab, please use the "Tab Notes" section located below.