Sound will begin in 5 seconds

Brown Sugar

Chords
01234567891011121314151617181920212223
E
B
G
D
A
E
B
0 1 2 3 4 5 6 7 8 9 10 11 12 13 14 15 16 17 18 19 20 21 22 23
(/) Slide Up  (\) Slide Down  (h) Hammer On  (p) Pull Off  (b) Bend (r) Release (v) Vibrato

Stave 1: Intro (repeat very first part of this line four times)

E|--12--------------------------------------------------------------------------------------------
B|--13--12--5--5--6--6--5--------8--9---9---8-----5--6--6--5-----1--1--1-----3--3-----5--5--6--5--
G|--12--12--5--5--5--5--5--------8--8---8---8-----5--5--5--5-----1--3--1-----5--3-----5--5--5--5--
D|--14--12--5--5--7--7--5--------8--10--10--8-----5--7--7--5-----1--1--1-----3--3-----5--5--7--5--
A|------------------------------------------------------------------------------------------------
E|------------------------------------------------------------------------------------------------

Stave 2: Verse

E|-------------------------------------------------------------------
B|--5--6--5-----5--5--6--5--------10--11--10-----11--10--10--11--10--
G|--5--5--5-----5--5--5--5--------10--10--10-----10--10--10--10--10--
D|--5--7--5-----5--5--7--5--------10--12--10-----12--10--10--12--10--
A|-------------------------------------------------------------------
E|-------------------------------------------------------------------

Stave 3: Verse continued

E|-----------------------------------------------------------
B|--5--6--5-----5--5--6--5--------3--3--3--3-----5--5--6--5--
G|--5--5--5-----5--5--5--5--------3--3--3--3-----5--5--5--5--
D|--5--7--5-----5--5--7--5--------3--3--3--3-----5--5--7--5--
A|-----------------------------------------------------------
E|-----------------------------------------------------------

Stave 4: Chorus

E|-----------------------------------------------------------
B|-----------------------------------------------------------
G|--------------0--------3-----5--3-----6--5--6--5--5--6--5--
D|--5--------0-----5--------5--------5--5--5--5--5--5--5--5--
A|--5-----2-----------------------------7--5--7--5--5--7--5--
E|--3--3-----------------------------------------------------

http://www.guitartabcreator.com
Guitar Tab Creator is intended to store guitar tab created through the tool. It currently does not support in-line text editing. Any text you place in here will be lost. If you need to comment on your tab, please use the "Tab Notes" section located below.