Sound will begin in 5 seconds

9

01234567891011121314151617181920212223
E
B
G
D
A
E
B
0 1 2 3 4 5 6 7 8 9 10 11 12 13 14 15 16 17 18 19 20 21 22 23
Song Science #1: How Pros Use 6 Chords to Write Hit Songs
(/) Slide Up  (\) Slide Down  (h) Hammer On  (p) Pull Off  (b) Bend (r) Release (v) Vibrato

Stave 1:

E|--------------------------------------------------------------------------------------
B|--------------------------------------------------------------------------------------
G|-------------------------------------8-------------8-------------8--10---------8------
D|---------8--10---------8--10------------10------------10--8--10---------8--10-----10--
A|-----10------------10------------10------------10-------------------------------------
E|--8-------------8-------------8-------------8-----------------------------------------

Stave 2:

E|---------------------------------------------------8----------------------------
B|------------------------------------------------------11--8-------------11------
G|----------------8------8--10b12--10b12r10--------------------10--10b12------10--
D|---------8--10-----10----------------------10--10-------------------------------
A|-----10-------------------------------------------------------------------------
E|--8-----------------------------------------------------------------------------

Stave 3:

E|--4--6--1--
B|--4--6--1--
G|--5--7--2--
D|--6--8--3--
A|--6--8--3--
E|--4--6--1--

http://www.guitartabcreator.com
Guitar Tab Creator is intended to store guitar tab created through the tool. It currently does not support in-line text editing. Any text you place in here will be lost. If you need to comment on your tab, please use the "Tab Notes" section located below.