Sound will begin in 5 seconds

6

01234567891011121314151617181920212223
E
B
G
D
A
E
B
0 1 2 3 4 5 6 7 8 9 10 11 12 13 14 15 16 17 18 19 20 21 22 23
Song Science #1: How Pros Use 6 Chords to Write Hit Songs
(/) Slide Up  (\) Slide Down  (h) Hammer On  (p) Pull Off  (b) Bend (r) Release (v) Vibrato

Stave 1:

E|--0--0--3--3--0--0--0--0--0-----------------------------------------------------
B|--1--0--0--2--1--1--1--1--3-----3--5--8--8--5--3--------3--5--6--8--5--6--5-----
G|--2--1--0--3--0--2--2--2--4--5--------------------5--5-----------------------7--
D|--2--2--0--0--2--0--2--3--5-----------------------------------------------------
A|--0--2--2-----3--0--0--3--5-----------------------------------------------------
E|--------3--------2--------------------------------------------------------------

Stave 2:

E|----------------------
B|----------------------
G|--2/4-0/5--2-4\0-12--
D|--2-4\0-5--2/4-0/12--
A|----------------------
E|----------------------

Stave 3:

E|----0--3--5--
B|----1--3--5--
G|----2--4--7--
D|----2--5--7--
A|----0--5--5--
E|-------3--5--

http://www.guitartabcreator.com
Guitar Tab Creator is intended to store guitar tab created through the tool. It currently does not support in-line text editing. Any text you place in here will be lost. If you need to comment on your tab, please use the "Tab Notes" section located below.