Sound will begin in 5 seconds

22

01234567891011121314151617181920212223
E
B
G
D
A
E
B
0 1 2 3 4 5 6 7 8 9 10 11 12 13 14 15 16 17 18 19 20 21 22 23
Song Science #1: How Pros Use 6 Chords to Write Hit Songs
(/) Slide Up  (\) Slide Down  (h) Hammer On  (p) Pull Off  (b) Bend (r) Release (v) Vibrato

Stave 1:

E|-----0--------0--------0--------0--------0--------12----------12----------12----------12----------
B|--------0--------0--------0--------0--------0---------12----------12----------12----------12------
G|-----------0--------0--------0--------0--------0----------12--------------------------------------
D|----------------------------------------------------------------------12----------12--------------
A|----------------------------------------------------------------------------------------------12--
E|--0-----------------------------------------------------------------------------------------------

Stave 2:

E|--12----------------------------------------------------------------------------------------------
B|------12------------------------------------------------------------------------------------------
G|-----------------2-----2-----4-----4-----5-----5-----5-----5-----0-----0-----0-----0-----0-----0--
D|----------12--0-----0-----0-----0-----0-----0-----0-----0-----4-----4-----2-----2-----0-----0-----
A|--------------------------------------------------------------------------------------------------
E|--------------------------------------------------------------------------------------------------

Stave 3:

E|--------------------------------------------------------------------------------------------------------
B|-----3-----3-----3-----5-----5-----5-----0-----0-----0-----0-----0--5--3-----3--5--3-----3--5--3-----3--
G|--0-----0-----0-----0-----0-----0-----5-----5-----4-----4-----2-----------4-----------4-----------4-----
D|--------------------------------------------------------------------------------------------------------
A|--------------------------------------------------------------------------------------------------------
E|--------------------------------------------------------------------------------------------------------

Stave 4:

E|----------------------------------------------------------------4--0-----4--0-----4--0-----4--
B|----5--0-----0--5--0-----0--5--0-----0--3--0-----0--3--0-----0--------0--------0--------0-----
G|----------4-----------4-----------4-----------4-----------4-----------------------------------
D|----------------------------------------------------------------------------------------------
A|----------------------------------------------------------------------------------------------
E|----------------------------------------------------------------------------------------------

Stave 5:

E|--2--0-----2--0-----2--0-----2--0-----2--0-----2--0-----------------------------------------
B|--------0--------0--------0--------0--------0--------0--------------------------------------
G|--------------------------------------------------------2--0-----2--0-----2--0-----2--0-----
D|--------------------------------------------------------------4--------4--------4--------4--
A|--------------------------------------------------------------------------------------------
E|--------------------------------------------------------------------------------------------

Stave 6:

E|---------------------------------------------------------------------------------------
B|---------------------------------------------------------------------------------------
G|--5--4--2--5--4--2--5--4--2--5--4------------------------------------------------------
D|-----------------------------------4p2p0--4p2p0--4p2p0--4p2p0--------------------------
A|---------------------------------------------------------------3p0--0--3p0--0----------
E|-------------------------------------------------------------------------------3b4--0--

http://www.guitartabcreator.com
Guitar Tab Creator is intended to store guitar tab created through the tool. It currently does not support in-line text editing. Any text you place in here will be lost. If you need to comment on your tab, please use the "Tab Notes" section located below.