Sound will begin in 5 seconds

1

01234567891011121314151617181920212223
E
B
G
D
A
E
B
0 1 2 3 4 5 6 7 8 9 10 11 12 13 14 15 16 17 18 19 20 21 22 23
Song Science #1: How Pros Use 6 Chords to Write Hit Songs
(/) Slide Up  (\) Slide Down  (h) Hammer On  (p) Pull Off  (b) Bend (r) Release (v) Vibrato

Stave 1:

E|--------------13----------------------------------------------------------------------------
B|--13--15--16------16--15--13-----------------------------------------12------12--14--15b17--
G|------------------------------15--13--15--13--12--10--12--10--12/13------13-----------------
D|--------------------------------------------------------------------------------------------
A|--------------------------------------------------------------------------------------------
E|--------------------------------------------------------------------------------------------

Stave 2:

E|----------------------------------------------------------------------------------
B|--12------------------------------------------------------------------------------
G|------13--12--14--15--17--15--14--12--14--15----------------------12--------------
D|----------------------------------------------15--14--14--15--14------15--14--12--
A|----------------------------------------------------------------------------------
E|----------------------------------------------------------------------------------

Stave 3:

E|-----------------------------------------------------------------------------------------
B|--15--17b19r17p15--15--17b19r17p15--15--17b19r17b15--15--14------------------17----------
G|-------------------------------------------------------------16--14--16--18------16--18--
D|-----------------------------------------------------------------------------------------
A|-----------------------------------------------------------------------------------------
E|-----------------------------------------------------------------------------------------

Stave 4:

E|--------------------------------------------------------------------------
B|--8--10b12r10p8-----8--10b12r10p8-----8--10b12r10p8-----------------------
G|-----------------9-----------------9-----------------9b10--8b9--7b8--6b7--
D|--------------------------------------------------------------------------
A|--------------------------------------------------------------------------
E|--------------------------------------------------------------------------

http://www.guitartabcreator.com
Guitar Tab Creator is intended to store guitar tab created through the tool. It currently does not support in-line text editing. Any text you place in here will be lost. If you need to comment on your tab, please use the "Tab Notes" section located below.