Sound will begin in 5 seconds

To the stars intro

01234567891011121314151617181920212223
E
B
G
D
A
E
B
0 1 2 3 4 5 6 7 8 9 10 11 12 13 14 15 16 17 18 19 20 21 22 23
Song Science #1: How Pros Use 6 Chords to Write Hit Songs
(/) Slide Up  (\) Slide Down  (h) Hammer On  (p) Pull Off  (b) Bend (r) Release (v) Vibrato

(W|WW) Whole (H|HH) Half (Q|QQ) Quarter (E|EE) 8th (S|SS) 16th (T|TT) 32nd (X|XX) 64th

Stave 1:
t: E E E E H W Q Q E H Q Q W
E|-----------------------------------------
B|-----------------------------------------
G|-----------------5--3--3--1--3--5--3--1--
D|--3--3--3--5--6--------------------------
A|-----------------------------------------
E|-----------------------------------------

Stave 2:
t: E E E E H W Q Q E Q Q Q W
E|-----------------------------------------
B|-----------------------------------------
G|--------------------5--3--1--3--5--3--1--
D|--3--3--3--5--6--3-----------------------
A|-----------------------------------------
E|-----------------------------------------

Stave 3:
t: E E E E E Q Q E Q W E E E Q Q Q E Q Q
E|-----------------------------------------------------------
B|-----------------6--6--6--4--------------8--8--8--6--9--8--
G|-----------------------------5--5--3--5--------------------
D|--3--3--3--5--6--------------------------------------------
A|-----------------------------------------------------------
E|-----------------------------------------------------------

http://www.guitartabcreator.com
Guitar Tab Creator is intended to store guitar tab created through the tool. It currently does not support in-line text editing. Any text you place in here will be lost. If you need to comment on your tab, please use the "Tab Notes" section located below.