Sound will begin in 5 seconds

minor thing

01234567891011121314151617181920212223
E
B
G
D
A
E
B
0 1 2 3 4 5 6 7 8 9 10 11 12 13 14 15 16 17 18 19 20 21 22 23
Song Science #1: How Pros Use 6 Chords to Write Hit Songs
(/) Slide Up  (\) Slide Down  (h) Hammer On  (p) Pull Off  (b) Bend (r) Release (v) Vibrato

Stave 1:

Db|--15--14--12--------------------------------------------------------------
Ab|--------------16--13--12--------------------------------------------------
E |--------------------------14--12--11--------------------------------------
B |--------------------------------------14--13--10--------------------------
Gb|--------------------------------------------------14--12--10--------------
Db|--------------------------------------------------------------14--12--11--

Stave 2:

Db|--------------------------------------------------------------------------------8--11--8--------------8--11/14--
Ab|----------------------------------------------------------8------10--8--12--10------------10------10------------
E |--------------------------------------8------9--8--11--9-----11-------------------------------11----------------
B |------------------7------9--7--10--9-----10---------------------------------------------------------------------
Gb|--6--9--7--10--9-----10-----------------------------------------------------------------------------------------
Db|----------------------------------------------------------------------------------------------------------------

Stave 3:

Db|--15--19--18--15--------------------------------------15--19--
Ab|------------------17------------------------------17----------
E |----------------------16----------------------16--------------
B |--------------------------17--------------17------------------
Gb|------------------------------19--14--19----------------------
Db|--------------------------------------------------------------

Stave 4:

Db|--20--19--17--------------20--19--17------------------------------------------------------------------------------------------
Ab|--------------20--19--17--------------20--19--17------------------------------------------------------------------------------
E |--------------------------------------------------20--17--16--20--17--16------------------------------------------------------
B |--------------------------------------------------------------------------19--17--16------------------------------------------
Gb|--------------------------------------------------------------------------------------19--18--15--19--18--15--14--------------
Db|------------------------------------------------------------------------------------------------------------------17--15--14--

Stave 5:

Db|-----------------8--12--11--8------------------------------------------------------------------------------------
Ab|-------------10----------------10--------------------------------------------------------------------------------
E |----------8------------------------8------------------11--12--14----------14--12----------12--11-----------------
B |------10------------------------------10----------13--------------10--------------14--------------14--10---------
Gb|--12--------------------------------------12--14----------------------12--------------10------------------14-----
Db|--------------------------------------------------------------------------------------------------------------0--

http://www.guitartabcreator.com
Guitar Tab Creator is intended to store guitar tab created through the tool. It currently does not support in-line text editing. Any text you place in here will be lost. If you need to comment on your tab, please use the "Tab Notes" section located below.