Sound will begin in 5 seconds

Harmonized triad run

01234567891011121314151617181920212223
E
B
G
D
A
E
B
0 1 2 3 4 5 6 7 8 9 10 11 12 13 14 15 16 17 18 19 20 21 22 23
Song Science #1: How Pros Use 6 Chords to Write Hit Songs
(/) Slide Up  (\) Slide Down  (h) Hammer On  (p) Pull Off  (b) Bend (r) Release (v) Vibrato

Stave 1:

E|------------------------------------------------------------------------------------------------------------12--17--
B|---------------------------------------------------------------------------------------------12---------13----------
G|---------------------------------------------------9-------------9---------9--14------9--14------9--14--------------
D|-------------------------------------9---------10------------10---------9---------10--------------------------------
A|-----------7--------7--12-----7--12-----7--12---------7--12---------12----------------------------------------------
E|--0--5--8-----5--7---------8----------------------------------------------------------------------------------------

Stave 2:

E|--17--12----------12-------------------------------------------------------------------------------------------------
B|----------13----------13---------12----------------------------------------------------------------------------------
G|--------------14----------14--9------13--9------14--9----------9-----------------------------------------------------
D|--------------------------------------------10---------10---------10---------10------------9-------------------------
A|-----------------------------------------------------------12---------12--7------12--7--------11--7-----12--7--------
E|----------------------------------------------------------------------------------------8------------8---------8--5--

http://www.guitartabcreator.com
Guitar Tab Creator is intended to store guitar tab created through the tool. It currently does not support in-line text editing. Any text you place in here will be lost. If you need to comment on your tab, please use the "Tab Notes" section located below.