Sound will begin in 5 seconds

Stuffswitwods

01234567891011121314151617181920212223
E
B
G
D
A
E
B
0 1 2 3 4 5 6 7 8 9 10 11 12 13 14 15 16 17 18 19 20 21 22 23
Song Science #1: How Pros Use 6 Chords to Write Hit Songs
(/) Slide Up  (\) Slide Down  (h) Hammer On  (p) Pull Off  (b) Bend (r) Release (v) Vibrato

Stave 1:

E|--15--12----------------------12--15--12--17--12--15--12------------------12--15--12--14--11--12--
B|--------------------------------------------------------------------------------------------------
G|----------16--12------12--16------------------------------16--12------12--------------------------
D|------------------14----------------------------------------------14------------------------------
A|--------------------------------------------------------------------------------------------------
E|--------------------------------------------------------------------------------------------------

Stave 2:

E|--15--12----------------------12--15--12--17--12--15--12------------------12--15--12--17--14--
B|----------------------------------------------------------------------------------------------
G|----------16--12------12--16------------------------------16--12------12----------------------
D|------------------14----------------------------------------------14--------------------------
A|----------------------------------------------------------------------------------------------
E|----------------------------------------------------------------------------------------------

Stave 3:

E|--19--15----------------------15--19--15--20--15--19--15----------------------15--19--15--17--14--
B|--------------------------------------------------------------------------------------------------
G|----------19--16------16--19------------------------------19--16------16--19----------------------
D|------------------17----------------------------------------------17------------------------------
A|--------------------------------------------------------------------------------------------------
E|--------------------------------------------------------------------------------------------------

Stave 4:

E|--19--15----------------------15--19--15--20--15--19--15----------------------15--19--15--17--14--
B|--------------------------------------------------------------------------------------------------
G|----------19--16------16--19------------------------------19--16------16--19----------------------
D|------------------17----------------------------------------------17------------------------------
A|--------------------------------------------------------------------------------------------------
E|--------------------------------------------------------------------------------------------------

Stave 5:

E|--15--12----------------------12--15--12--17--12--15--12----------------------12--15--12--14--11--
B|--------------------------------------------------------------------------------------------------
G|----------16--12------12--16------------------------------16--12------12--16----------------------
D|------------------14----------------------------------------------14------------------------------
A|--------------------------------------------------------------------------------------------------
E|--------------------------------------------------------------------------------------------------

Stave 6:

E|-----12----------------------12--15--12--17--12--15--12--------------12--15--12----------
B|-----------------------------------------------------------------------------------------
G|---------16--12------12--16------------------------------16--12------------------16--12--
D|-----------------14----------------------------------------------14----------------------
A|-----------------------------------------------------------------------------------------
E|-----------------------------------------------------------------------------------------

Stave 7:

E|--------------------8--12--8--14--10--------------------------10--7----------------------
B|-----------------------------------------------------------------------------------------
G|--12--9------9--12--------------------14--11------11--14--11---------11--7-----7--11--7--
D|---------10-----------------------------------12----------------------------9------------
A|-----------------------------------------------------------------------------------------
E|-----------------------------------------------------------------------------------------

Stave 8:

E|--------------------------------------------8--12--8--14--10--------------------------
B|-----------------5--9--5--------------------------------------------------------------
G|--------------------------12--9------9--12--------------------14--11------11--14--11--
D|--9--6-----6--9------------------10-----------------------------------12--------------
A|--------7-----------------------------------------------------------------------------
E|--------------------------------------------------------------------------------------

Stave 9:

E|--16--12--------------------------------------
B|----------------------------------------------
G|----------16--13------13--16------13--16------
D|------------------14----------14----------14--
A|----------------------------------------------
E|----------------------------------------------

http://www.guitartabcreator.com
Guitar Tab Creator is intended to store guitar tab created through the tool. It currently does not support in-line text editing. Any text you place in here will be lost. If you need to comment on your tab, please use the "Tab Notes" section located below.