Sound will begin in 5 seconds

G Pentatonic Guitar Positions

01234567891011121314151617181920212223
E
B
G
D
A
E
B
0 1 2 3 4 5 6 7 8 9 10 11 12 13 14 15 16 17 18 19 20 21 22 23
Song Science #1: How Pros Use 6 Chords to Write Hit Songs
(/) Slide Up  (\) Slide Down  (h) Hammer On  (p) Pull Off  (b) Bend (r) Release (v) Vibrato

Stave 1:

E|---------------------------------10--12--15--
B|--------------------------8--12--------------
G|--------------------7--9---------------------
D|--------------5--9---------------------------
A|--------5--7---------------------------------
E|--3--7---------------------------------------

Stave 2:

E|-----------------
B|-----------------
G|-----------------
D|-----------2--5--
A|-----2--5--------
E|--3--------------

Stave 3:

E|--------------3--
B|--------3--5-----
G|-----4-----------
D|--5--------------
A|-----------------
E|-----------------

Stave 4:

E|--------------------
B|-----------------8--
G|-----------7--9-----
D|--------9-----------
A|----10--------------
E|--------------------

Stave 5:

E|------------10--12--15--
B|--------12--------------
G|----12------------------
D|------------------------
A|------------------------
E|------------------------

http://www.guitartabcreator.com
Guitar Tab Creator is intended to store guitar tab created through the tool. It currently does not support in-line text editing. Any text you place in here will be lost. If you need to comment on your tab, please use the "Tab Notes" section located below.