Sound will begin in 5 seconds

Dobro G Blues Scale Open

01234567891011121314151617181920212223
E
B
G
D
A
E
B
0 1 2 3 4 5 6 7 8 9 10 11 12 13 14 15 16 17 18 19 20 21 22 23
Song Science #1: How Pros Use 6 Chords to Write Hit Songs
(/) Slide Up  (\) Slide Down  (h) Hammer On  (p) Pull Off  (b) Bend (r) Release (v) Vibrato

Stave 1:

D|--------------------------------0--3--5--
B|--------------------------1--2-----------
G|--------------------0--3-----------------
D|--------------0--3-----------------------
B|--------1--2-----------------------------
G|--0--3-----------------------------------

Stave 2:

D|-----------------------|-----------------3--5--
B|-----------------------|--------1--2--3--------
G|-----------------------|--0--3-----------------
D|-----------------3--5--|-----------------------
B|--------1--2--3--------|-----------------------
G|--0--3-----------------|-----------------------

Stave 3:

D|--5--------------------|--5--------------------
B|-----6-----------------|-----6-----------------
G|--------7--6--5--3--0--|--------7--6--5--------
D|-----------------------|-----------------8--5--
B|-----------------------|-----------------------
G|-----------------------|-----------------------

Stave 4:

D|-----------------------|-----------------------
B|--8--6-----------------|--8--6--3--2--1--------
G|--------7--6--5--3-----|-----------------3--0--
D|--------------------5--|-----------------------
B|-----------------------|-----------------------
G|-----------------------|-----------------------

http://www.guitartabcreator.com
Guitar Tab Creator is intended to store guitar tab created through the tool. It currently does not support in-line text editing. Any text you place in here will be lost. If you need to comment on your tab, please use the "Tab Notes" section located below.