Sound will begin in 5 seconds

C6th Lap Licks For Okie In C

Chords
01234567891011121314151617181920212223
E
B
G
D
A
E
B
0 1 2 3 4 5 6 7 8 9 10 11 12 13 14 15 16 17 18 19 20 21 22 23
Song Science #1: How Pros Use 6 Chords to Write Hit Songs
(/) Slide Up  (\) Slide Down  (h) Hammer On  (p) Pull Off  (b) Bend (r) Release (v) Vibrato

Stave 1:

E|-------------------------|------------------------------
C|---------------------12--|------------------12------12--
A|-------------------------|------------------------------
G|----------12---------12--|----------12------12------12--
E|------12---------12------|------12------12------12------
C|--12---------------------|--12--------------------------

Stave 2:

E|--12------------------|-------------
C|--12------12------12--|---------12--
A|----------------------|-------------
G|----------12------12--|---------12--
E|------12------12------|--10/12------
C|----------------------|-------------

Stave 3:

E|------------------|-------------------------------
C|------------------|---------14------14------------
A|--8\7-------------|--12/14------14------14\12/14--
G|-------7----------|-------------------------------
E|-------------6/7--|-------------------------------
C|----------7-------|-------------------------------

Stave 4:

E|------------------
C|------------------
A|--6\5-------------
G|-------5-------5--
E|----------5/3-----
C|------------------

http://www.guitartabcreator.com
Guitar Tab Creator is intended to store guitar tab created through the tool. It currently does not support in-line text editing. Any text you place in here will be lost. If you need to comment on your tab, please use the "Tab Notes" section located below.