Sound will begin in 5 seconds

Shine On You Crazy Diamond - David Gilmour, Meltdown festival - Intro pt1

01234567891011121314151617181920212223
E
B
G
D
A
E
B
0 1 2 3 4 5 6 7 8 9 10 11 12 13 14 15 16 17 18 19 20 21 22 23
Song Science #1: How Pros Use 6 Chords to Write Hit Songs
(/) Slide Up  (\) Slide Down  (h) Hammer On  (p) Pull Off  (b) Bend (r) Release (v) Vibrato

Stave 1:

E|--0----0--0---------------------------0-------------0--------------10p7p0--7----10p7p0--
B|--0----0-----3/5--5-------------------0-------------0--------12-------------------------
G|--0----0---------------2h3p2p0--------0-------------0--------12-------------------------
D|--2----2------------------------2-----2-------------2-----------------------------------
A|--2----2------------------------------2-------------2-----------------------------------
E|--0----0---------------------------0-------------0-------12-----------------------------

Stave 2:

E|-------------------------------------------------0----------0-------12--
B|-------------------------------------------------0--0--3b4----------12--
G|-----0--2b3r2p1p0-----2-----0--------------------0--0-------------------
D|--2----------------2-----2-----2-----------------2--2-------------------
A|----------------------------------1h2p1p0--------2----------------------
E|-------------------------------------------3--0------------------0------

Stave 3:

E|------------------------------------------------------------------------
B|------------------------------------------------------------------------
G|---------------------------------------------------7--7-----------------
D|-------------5-----------5--7h8p7p5-----5-----7/9--------7h8p7\5--------
A|-------5--7-----7--5--7--------------7-----7----------------------7--7--
E|--5/7-------------------------------------------------------------------

http://www.guitartabcreator.com
Guitar Tab Creator is intended to store guitar tab created through the tool. It currently does not support in-line text editing. Any text you place in here will be lost. If you need to comment on your tab, please use the "Tab Notes" section located below.