Sound will begin in 5 seconds

Il gatto e la volpe (E. Bennato) in G - Sax solo arranged for guitar

01234567891011121314151617181920212223
E
B
G
D
A
E
B
0 1 2 3 4 5 6 7 8 9 10 11 12 13 14 15 16 17 18 19 20 21 22 23
Song Science #1: How Pros Use 6 Chords to Write Hit Songs
(/) Slide Up  (\) Slide Down  (h) Hammer On  (p) Pull Off  (b) Bend (r) Release (v) Vibrato

Stave 1:

E|--1-3-----------------------------------------------------------1/3----------------------
B|--1/3--5--3------------------3b5r3--3/5--3---------3------------1-3--5--3----------------
G|-------------4--2--0--2p0---------------------2/4-----4--------------------4--2--0--2p0--
D|---------------------------------------------------------5-------------------------------
A|-----------------------------------------------------------------------------------------
E|-----------------------------------------------------------------------------------------

Stave 2:

E|-----------------------------------3--3--3p0--------------------4--4--4--------4--5---------------
B|--3b5r3--3/5--3---------3---------------------0--5b7r5--4----------------5-----------7b9r7--5-----
G|-------------------2/4-----4-------------------------------4----------------7------------------7--
D|------------------------------5-------------------------------------------------------------------
A|--------------------------------------------------------------------------------------------------
E|--------------------------------------------------------------------------------------------------

Stave 3:

E|-------------------10/12--10---------10--7---------------7-----------8------
B|--10--10--10p8----------------10b12---------8------8--7--6------------------
G|----------------9----------------------------------------7------6/9---------
D|---------------------------------------------------------5------------------
A|----------------------------------------------------------------------------
E|----------------------------------------------------------------------------

http://www.guitartabcreator.com
Guitar Tab Creator is intended to store guitar tab created through the tool. It currently does not support in-line text editing. Any text you place in here will be lost. If you need to comment on your tab, please use the "Tab Notes" section located below.