Leave From The Vine

Chords

01234567891011121314151617181920212223
E
B
G
D
A
E
B
0 1 2 3 4 5 6 7 8 9 10 11 12 13 14 15 16 17 18 19 20 21 22 23
(/) Slide Up  (\) Slide Down  (h) Hammer On  (p) Pull Off  (b) Bend (r) Release (v) Vibrato

Capo Fret 3

Stave 1:

E|-------------------------------|-------------------------------|--
B|--3-----------3-----1----------|--------3-----3-----1----------|--
G|--------------0--------2/4-----|--------------0--------2/4-----|--
D|--------0----------------------|--------0----------------------|--
A|-------------------------------|-------------------------------|--
E|--3-------------------------3--|--3-------------------------3--|--

Stave 2:

E|-------------------------------------|----------------------------|--
B|--0-----------------1-----0----------|--0-----0-----0-------------|--
G|--------------0-----------------2p0--|--------------0-----2p0-----|--
D|--------0----------------------------|--------0-------------------|--
A|-------------------------------------|----------------------------|--
E|--0-----------------------0----------|--0----------------------0--|--

Stave 3:

E|-------------------------------|-------------------------------|--
B|--3-----------3-----1----------|--------3-----3-----1----------|--
G|--------------0--------2/4-----|--------------0--------2/4-----|--
D|--------0----------------------|--------0----------------------|--
A|-------------------------------|-------------------------------|--
E|--3-------------------------3--|--3-------------------------3--|--

Stave 4:

E|-------------------------------------|-------------------------------------------------|--
B|--0-----------------1-----0----------|--------------------0-----------0-----0----------|--
G|--------------0-----------------2p0--|--------------0-----------------------0-----2p0--|--
D|--------0----------------------------|--------0-----------------------0----------------|--
A|-------------------------------------|-------------------------------------------------|--
E|--0-----------------------0----------|--2-----------------------2----------------------|--

							http://www.guitartabcreator.com
Instruments
{"strings":[[[".","_",".","_",".","_",".",".",".",".",".","|",".","_",".","_",".","_",".",".",".",".",".","|"],[3,"_",".","_",3,"_",1,".",".",".",".","|",".","_",3,"_",3,"_",1,".",".",".",".","|"],[".","_",".","_",0,"_",".",2,"/",4,".","|",".","_",".","_",0,"_",".",2,"/",4,".","|"],[".","_",0,"_",".","_",".",".",".",".",".","|",".","_",0,"_",".","_",".",".",".",".",".","|"],[".","_",".","_",".","_",".",".",".",".",".","|",".","_",".","_",".","_",".",".",".",".",".","|"],[3,"_",".","_",".","_",".",".",".",".",3,"|",3,"_",".","_",".","_",".",".",".",".",3,"|"]],[[".","_",".","_",".","_",".","_",".","_",".",".",".","|",".","_",".","_",".","_",".",".",".",".","|"],[0,"_",".","_",".","_",1,"_",0,"_",".",".",".","|",0,"_",0,"_",0,"_",".",".",".",".","|"],[".","_",".","_",0,"_",".","_",".","_",2,"p",0,"|",".","_",".","_",0,"_",2,"p",0,".","|"],[".","_",0,"_",".","_",".","_",".","_",".",".",".","|",".","_",0,"_",".","_",".",".",".",".","|"],[".","_",".","_",".","_",".","_",".","_",".",".",".","|",".","_",".","_",".","_",".",".",".",".","|"],[0,"_",".","_",".","_",".","_",0,"_",".",".",".","|",0,"_",".","_",".","_",".",".",".",0,"|"]],[[".","_",".","_",".","_",".",".",".",".",".","|",".","_",".","_",".","_",".",".",".",".",".","|"],[3,"_",".","_",3,"_",1,".",".",".",".","|",".","_",3,"_",3,"_",1,".",".",".",".","|"],[".","_",".","_",0,"_",".",2,"/",4,".","|",".","_",".","_",0,"_",".",2,"/",4,".","|"],[".","_",0,"_",".","_",".",".",".",".",".","|",".","_",0,"_",".","_",".",".",".",".",".","|"],[".","_",".","_",".","_",".",".",".",".",".","|",".","_",".","_",".","_",".",".",".",".",".","|"],[3,"_",".","_",".","_",".",".",".",".",3,"|",3,"_",".","_",".","_",".",".",".",".",3,"|"]],[[".","_",".","_",".","_",".","_",".","_",".",".",".","|",".","_",".","_",".","_",".","_",".","_",".","_",".","_",".",".",".","|"],[0,"_",".","_",".","_",1,"_",0,"_",".",".",".","|",".","_",".","_",".","_",0,"_",".","_",0,"_",0,"_",".",".",".","|"],[".","_",".","_",0,"_",".","_",".","_",2,"p",0,"|",".","_",".","_",0,"_",".","_",".","_",".","_",0,"_",2,"p",0,"|"],[".","_",0,"_",".","_",".","_",".","_",".",".",".","|",".","_",0,"_",".","_",".","_",".","_",0,"_",".","_",".",".",".","|"],[".","_",".","_",".","_",".","_",".","_",".",".",".","|",".","_",".","_",".","_",".","_",".","_",".","_",".","_",".",".",".","|"],[0,"_",".","_",".","_",".","_",0,"_",".",".",".","|",2,"_",".","_",".","_",".","_",2,"_",".","_",".","_",".",".",".","|"]]],"numberofstrings":6,"notes":["E","B","G","D","A","E","B"],"capo":"3","stringnotes":["E4","B3","G3","D3","A2","E2"],"comments":["Stave 1:","Stave 2:","Stave 3:","Stave 4:"],"timing":[["W",null,"W",null,"W",null,"W","W",null,"W","W","W","W","W","W","W","W","W","W","W","W","W","W"],["W",null,"W",null,"W",null,"W",null,"W",null,"W",null,"W",null,"W",null,"W",null,"W",null,"W",null,"W","W"],["W",null,"W",null,"W",null,"W","W",null,"W","W",null,"W",null,"W",null,"W",null,"W","W",null,"W","W"],["W",null,"W",null,"W",null,"W",null,"W",null,"W",null,"W",null,"W",null,"W",null,"W",null,"W",null,"W",null,"W",null,"W",null,"W",null,"W"]],"timingvisible":false,"tabcounter":32,"stave":3,"totalstaves":4,"instrument":"6guitar","selectedtuning":"6_standard","version":"13"}

Member for

1 month
Submitted by snowtoot on Tue, 2020-06-02 18:28