TONIGHT CHORUS

01234567891011121314151617181920212223
E
B
G
D
A
E
B
0 1 2 3 4 5 6 7 8 9 10 11 12 13 14 15 16 17 18 19 20 21 22 23
(/) Slide Up  (\) Slide Down  (h) Hammer On  (p) Pull Off  (b) Bend (r) Release (v) Vibrato

Stave 1:

E|------------------------------------------0-----0h1------------------------------------------0-----0h1----------------3--
B|--1--------0h1--1--3-----1-----1--1--0h1--1----------3--0h1--1--1--1--3-----1-----0h1--1--1--1----------3-----0h1--1-----
G|--0-----0-------0-----0--2----------------2--2-------0-------------0-----0--0--0-------------1----------0----------------
D|-----2----------------------2-------------3--------------------------------------------------3--3----------0-------------
A|--3-------------3--------0-----------------------------------------3--------0--------------------------------------------
E|-----------------------------------------------------3--------------------------------------------------3----------------

Stave 2:

E|--3-----0-----------------0-----0h1-------------0--------------------------------0----------------------------0-----------
B|--1--------3-----1--1--1--1----------3-----0h1--1--1--1--3-----1--------1--------1-----3--3-----------3--0h1--1--------1--
G|--0-----------0--2--------2----------0----------0-----------0--2-----2-----2-----2-----------------2----------0-----0-----
D|--------------------------3--3----------0-------------------------3--------------3--3-----------3----------------2--------
A|--3--3-----------0------------------------------3-------------------------------------------------------------3-----------
E|-------------------------------------3-------------------------1--------------1--------------1----------------------------

							http://www.guitartabcreator.com
Chords

Instruments
{"strings":[[[".",".",".",".",".",".",".",".",".",".",".",".",".",".",".",".",0,".",0,"h",1,".",".",".",".",".",".",".",".",".",".",".",".",".",".",".",".",0,".",0,"h",1,".",".",".",".",".",".",3],[1,".",".",0,"h",1,1,3,".",1,".",1,1,0,"h",1,1,".",".",".",".",3,0,"h",1,1,1,1,3,".",1,".",0,"h",1,1,1,1,".",".",".",".",3,".",0,"h",1,1,"."],[0,".",0,".",".",".",0,".",0,2,".",".",".",".",".",".",2,2,".",".",".",0,".",".",".",".",".",0,".",0,0,0,".",".",".",".",".",1,".",".",".",".",0,".",".",".",".",".","."],[".",2,".",".",".",".",".",".",".",".",2,".",".",".",".",".",3,".",".",".",".",".",".",".",".",".",".",".",".",".",".",".",".",".",".",".",".",3,3,".",".",".",".",0,".",".",".",".","."],[3,".",".",".",".",".",3,".",".",0,".",".",".",".",".",".",".",".",".",".",".",".",".",".",".",".",".",3,".",".",0,".",".",".",".",".",".",".",".",".",".",".",".",".",".",".",".",".","."],[".",".",".",".",".",".",".",".",".",".",".",".",".",".",".",".",".",".",".",".",".",3,".",".",".",".",".",".",".",".",".",".",".",".",".",".",".",".",".",".",".",".",3,".",".",".",".",".","."]],[[3,3,".",0,".",".",".",".",".",0,".",0,"h",1,".",".",".",".",".",0,".",".",".",".",".",".",".",".",".",".",0,".",".",".",".",".",".",".",".",".",".",0,".",".","."],[".",1,".",".",3,".",1,1,1,1,".",".",".",".",3,".",0,"h",1,1,1,1,3,".",1,".",".",1,".",".",1,".",3,3,".",".",".",3,0,"h",1,1,".",".",1],[".",0,".",".",".",0,2,".",".",2,".",".",".",".",0,".",".",".",".",0,".",".",".",0,2,".",2,".",2,".",2,".",".",".",".",".",2,".",".",".",".",0,".",0,"."],[".",".",".",".",".",".",".",".",".",3,3,".",".",".",".",0,".",".",".",".",".",".",".",".",".",3,".",".",".",".",3,3,".",".",".",3,".",".",".",".",".",".",2,".","."],[".",3,3,".",".",".",0,".",".",".",".",".",".",".",".",".",".",".",".",3,".",".",".",".",".",".",".",".",".",".",".",".",".",".",".",".",".",".",".",".",".",3,".",".","."],[".",".",".",".",".",".",".",".",".",".",".",".",".",".",3,".",".",".",".",".",".",".",".",".",1,".",".",".",".",1,".",".",".",".",1,".",".",".",".",".",".",".",".",".","."]]],"numberofstrings":6,"notes":["E","B","G","D","A","E","B"],"capo":0,"stringnotes":["E4","B3","G3","D3","A2","E2"],"comments":["Stave 1:","Stave 2:"],"timing":[["W","W","W","W",null,"W","W","W","W","W","W","W","W","W",null,"W","W","W","W",null,"W","W","W",null,"W","W","W","W","W","W","W","W","W",null,"W","W","W","W","W","W","W","W","W","W","W",null,"W","W","W"],["W","W","W","W","W","W","W","W","W","W","W","W",null,"W","W","W","W",null,"W","W","W","W","W","W","W","W","W","W","W","W","W","W","W","W","W","W","W","W","W",null,"W","W","W","W","W"]],"timingvisible":false,"tabcounter":49,"stave":0,"totalstaves":2,"instrument":"6guitar","selectedtuning":"6_standard","version":"13"}

Member for

1 year 5 months
Submitted by Snow on Thu, 2020-12-03 15:37