Sound will begin in 5 seconds

song

Chords
01234567891011121314151617181920212223
E
B
G
D
A
E
B
0 1 2 3 4 5 6 7 8 9 10 11 12 13 14 15 16 17 18 19 20 21 22 23
Song Science #1: How Pros Use 6 Chords to Write Hit Songs
(/) Slide Up  (\) Slide Down  (h) Hammer On  (p) Pull Off  (b) Bend (r) Release (v) Vibrato

Stave 1:

E|-------------------------------------------------------------------------------------------
B|-------------------------------------------------------------------------------------------
G|-------------------------------------------------------------------------------------------
D|----------------------2-----0--------------------------------------2-----0-----4h5p4-------
A|--2-----2h4--5-----4-----0-----0--4p2-----4/5--2-----2h4--5-----4-----0-----0---------5p0--
E|-----2----------3----------------------3----------2----------3-----------------------------

Stave 2:

E|--------x--x-------x-----x--------x--x--------x--x-------x-----x--------
B|--7-----x--x--3p0--x--2--x--------x--x--7-----x--x--5p3--x--3--x--5--5--
G|--6--7--x--x--4----x--2--x--2--2--x--x--6--7--x--x--4----x--4--x--4--4--
D|--7--7--x--x--4----x--4--x--2--2--x--x--7--7--x--x--4----x--4--x--4--4--
A|--5--5--x--x-------x--4--x--0--0--x--x--5--5--x--x-------x-----x--------
E|--------x--x-------x-----x--------x--x--------x--x-------x-----x--------

Stave 3:

E|--------5--5h7p5--------------------5--10-----9-------------
B|------------------5h7p5--------------------7-----10---------
G|-----6---------------------------6-------------------7/9\6--
D|--4----------------------7/9--4-----------------------------
A|------------------------------------------------------------
E|------------------------------------------------------------

http://www.guitartabcreator.com
Guitar Tab Creator is intended to store guitar tab created through the tool. It currently does not support in-line text editing. Any text you place in here will be lost. If you need to comment on your tab, please use the "Tab Notes" section located below.