Sound will begin in 5 seconds

Phallic dreamsicle

Chords
01234567891011121314151617181920212223
E
B
G
D
A
E
B
0 1 2 3 4 5 6 7 8 9 10 11 12 13 14 15 16 17 18 19 20 21 22 23
Song Science #1: How Pros Use 6 Chords to Write Hit Songs
(/) Slide Up  (\) Slide Down  (h) Hammer On  (p) Pull Off  (b) Bend (r) Release (v) Vibrato

Stave 1:

E|----------------------------------------------------------------------------------------------------------
B|------------------------------------------------------------------------------------------------------12--
G|-----6\4-----4/9---9----------------13------14--13-------------6\4-----4/9---9----------------13----------
D|-----7-6-----6-11--11b12b11-----11------11----------14--11-----7-6-----6-11--11b12b11-----11------11------
A|--0-------0------------------0------------------------------0-------0------------------0------------------
E|----------------------------------------------------------------------------------------------------------

Stave 2:

E|--------------
B|------14------
G|----------13--
D|--11----------
A|--------------
E|--------------

Stave 3:

E|------------------------------------------------------------------------------------------------
B|------------14-------------14-----------------12------------12--------------10-----------10-----
G|-----11---------11-----11------11------9----------9------9------9-----8---------8-----8------8--
D|------------------------------------------------------------------------------------------------
A|--0------0----------0--------------11-----11---------11------------9-----9---------9------------
E|------------------------------------------------------------------------------------------------

Stave 4:

E|-----------------------------
B|-----------9-----------9-----
G|-----7--------7-----7-----7--
D|-----------------------------
A|--7-----7--------7-----------
E|-----------------------------

Stave 5:

E|--5--4--------
B|--5--5--3--2--
G|--6--6--2--2--
D|--7--6--0--2--
A|--7--4--0--0--
E|--5-----------

Stave 6:

E|---------------------------------------------------------------------------------------------------------
B|---------------------------------------------------------------------------------------------------------
G|-----------6-----------6--------------4-----------4---------------9-------------9----------------13------
D|-----7--------7-----7-----7-----6--------6-----6-----6-----11--------11-----11-----11-----11---------11--
A|--0-----0--------0-----------4-----4--------4-----------9------9---------9-------------0------0----------
E|---------------------------------------------------------------------------------------------------------

Stave 7:

E|------
B|------
G|--14--
D|------
A|------
E|------

Stave 8:

E|------------------------------------
B|------------------------------------
G|--6--4--9---13--13--14--14--13--13--
D|--7--6--11--11--11--11--11--11--11--
A|--0--4--9---0---0---0---0---0---0---
E|------------------------------------

Stave 9:

E|------------------------
B|--10--9--7--7--5--3--2--
G|---------------------2--
D|--11--9--7--7--6--4--2--
A|--9---7--5--5--4--2--0--
E|------------------------

http://www.guitartabcreator.com
Guitar Tab Creator is intended to store guitar tab created through the tool. It currently does not support in-line text editing. Any text you place in here will be lost. If you need to comment on your tab, please use the "Tab Notes" section located below.