Sound will begin in 5 seconds

Final Snake tab

01234567891011121314151617181920212223
E
B
G
D
A
E
B
0 1 2 3 4 5 6 7 8 9 10 11 12 13 14 15 16 17 18 19 20 21 22 23
Song Science #1: How Pros Use 6 Chords to Write Hit Songs
(/) Slide Up  (\) Slide Down  (h) Hammer On  (p) Pull Off  (b) Bend (r) Release (v) Vibrato

Stave 1:

E|--------7--10---------10--13---------7-------------10------
B|--6--9---------9--12--------------------9--------------12--
G|------------------------------7--10--------10--13----------
D|-----------------------------------------------------------
A|-----------------------------------------------------------
E|-----------------------------------------------------------

Stave 2:

E|----------13--16----------16--19----------13--------------16------
B|--12--15----------15--18----------------------15--------------18--
G|----------------------------------13--16----------16--19----------
D|------------------------------------------------------------------
A|------------------------------------------------------------------
E|------------------------------------------------------------------

Stave 3:

E|------16--------------13----------19--16----------16--13----------
B|--18--------------15----------------------18--15----------15--12--
G|----------19--16----------16--13----------------------------------
D|------------------------------------------------------------------
A|------------------------------------------------------------------
E|------------------------------------------------------------------

Stave 4:

E|------10-------------7---------13--10---------10--7--------
B|--12--------------9--------------------12--9---------9--6--
G|----------13--10--------10--7------------------------------
D|-----------------------------------------------------------
A|-----------------------------------------------------------
E|-----------------------------------------------------------

http://www.guitartabcreator.com
Guitar Tab Creator is intended to store guitar tab created through the tool. It currently does not support in-line text editing. Any text you place in here will be lost. If you need to comment on your tab, please use the "Tab Notes" section located below.